Enviar cifraEntrar

Vou Deixar

Skank

Tab de baixo: Principal
exibições 49.574
Intro
G|-----------------|
D|-----------------|
A|--10h121212121212| 
E|-----------------|

Verso
Vou deixar....
G|-------------------------------|
D|-------------------------------| x2
A|-5-55-----------------55----55-| 
E|-------2-22--3-33--33----55----|

Pré-refrão
Não, não, não quero hora pra voltar, não
G|---------------------|       |-----------------------------|
D|---------------------|       |-----------------------------|
A|--555--222-----------| x3    |--555--222-------\1212121212-|
E|------------333--555-|       |------------333--------------|

Refrão

Eu já estou na sua estrada....
G|---------------------------------------------|
D|---------------------------------------------|
A|-7-7----7--7-7----7--------------------------| X2
E|-----77--------77----5-5-00-5---5-5-00-5-----|

Mas vou ficar aqui.....
G|----------------------------------------------------------------|
D|----------------------------------------------------------------|
A|-7---5-7---5-7--9---7-9---7-9--10----9-10----9-10--9---7-9---7-9|
E|---7-----7--------9-----9---------10------10---------9-----9----|
Vou me esquecer de mim...
G|------------------------------------|
D|------------------------------------|
A|-7---5-7---5-7--9---7-9---7-9-------| 
E|---7-----7--------9-----9------5~~~-|

Solo

G|-------------------------------|
D|-------------------------------| x2
A|-5-55-----------------55----55-| 
E|-------2-22--3-33--33----55----|

G|----------------------|      
D|----------------------|       
A|--5----2--------------| x4    
E|------------3-----555-|


Verso
Não, não, não quero hora pra voltar, não       
G|----------------------|       |-----------------------------|
D|----------------------|       |-----------------------------|
A|--555--222------------| x3    |--555--222-------\1212121212-|
E|------------333--5555-|       |------------333--------------|


G|---------------------|       
D|---------------------|       
A|--555--222-----------| Até o fim..    
E|------------333--555-|       





_______________________________________________________
Contribuição: Guigo Banda Metropolis(guigo0@yahoo.com.br)
  • 1
  • 2
  • 3
  • 4
  • 5
  • 6
  • 7
  • 8
  • 9
  • 10
  • 11
  • 12

    0 comentários

      mostrar mais comentários

      Conseguiu tocar?

      2tocaram0ainda não

      Grave um vídeo tocando Vou Deixar e mande pra gente!

      00:00 / 00:00
      outros vídeos desta música
      repetirqualidadeautomática
      • automática
      Outro vídeos desta música
        00:00 / 00:00
        automática
        • automática
        2 versões de Tab de baixoexibiçõescontribuições
        1 versão de Tab de bateriaexibiçõescontribuições
        2 versões de Guitar Proformatodownloadscontribuição
        1 versão de Partiturasformatodownloadscontribuição
        fecharplay/pause subir/descer velocidade
        fechar
        OK