Cifra Club

Vou Deixar

Skank

Tab de baixo: Principal
exibições 51.063
[Introdução]

G|----------------------------------------------|
D|-3/7-7-7-7--7-7-7-7--7-7-7-7--7-7-7-7---------|
A|----------------------------------------------|
E|----------------------------------------------|


[Primeira parte - 2x]

Vou deixar a vida me levar...

Parte 1 de 3 (2x)
G|----------------------------------------------|
D|----------------------------------------------|
A|-5--5-5-5-------------------------------------|
E|----------2--2-2-2-0-3--3-3-3-0-3-3-6-6-3-3-6-|

Parte 2 de 3 (2x)
G|----------------------------------------------|
D|----------------------------------------------|
A|-5-5-5-5--2-2-2-2---------0-0-0-0-------------|
E|------------------3-3-3-3---------------------|

Parte 3 de 3
G|----------------------------------------------|
D|-----------------------------------2/7-7-7-7--|
A|-5-5-5-5--2-2-2-2---------0-0-0-0-------------|
E|------------------3-3-3-3---------------------|

G|----------------------------------------------|
D|-7-7-7-7--7-7-7-7--7-7-7-7--------------------|
A|----------------------------------------------|
E|----------------------------------------------|


[Segunda parte]

Nananã! Eu já estou na sua estrada...

Parte 1 de 3 (2x)
G|----------------------------------------------|
D|----------------------------------------------|
A|-7-7-----5--7-7-----5-7-----------------------|
E|-----x-7--------x-7---------------------------|

G|----------------------------------------------|
D|----------------------------------------------|
A|----------------------------------------------|
E|5-5-0-0-3-0-5-5-0-0-3-5-----------------------|

Parte 2 de 3
G|----------------------------------------------|
D|----------------------------------------------|
A|-7---5-7---5-7--9---7-9---7-9--10------12-----|
E|---7-----7--------9-----9---------10-12-------|

G|----------------------------------------------|
D|----------------------------------------------|
A|-------10--9---7-9---7-9----------------------|
E|-10-12-------9-----9--------------------------|

Parte 3 de 3
G|----------------------------------------------|
D|----------------------------------------------|
A|-7---5-7---5-7--9---7-9---7-9---12-12-12-12---|
E|---7-----7--------9-----9---------------------|

G|----------------------------------------------|
D|----------------------------------------------|
A|-12-12-12-12--12-12-12-12--12-12-12-12--------|
E|----------------------------------------------|


[Terceira parte] 

Vou deixar o coração bater...

Parte 1 de 3 (2x)
G|----------------------------------------------|
D|----------------------------------------------|
A|-5--5-5-5-------------------------------------|
E|----------2--2-2-2-0-3--3-3-3-0-3-3-6-6-3-3-6-|

Parte 2 de 3 (2x)
G|----------------------------------------------|
D|----------------------------------------------|
A|-5-5-5-5--2-2-2-2---------0-0-0-0-------------|
E|------------------3-3-3-3---------------------|

Parte 3 de 3
G|----------------------------------------------|
D|-----------------------------------2/7-7-7-7--|
A|-5-5-5-5--2-2-2-2---------0-0-0-0-------------|
E|------------------3-3-3-3---------------------|

G|----------------------------------------------|
D|-7-7-7-7--7-7-7-7--7-7-7-7--------------------|
A|----------------------------------------------|
E|----------------------------------------------|


[Quarta parte]

Eu já estou na sua estrada...

Parte 1 de 3 (2x)
G|----------------------------------------------|
D|----------------------------------------------|
A|-7-7-----5--7-7-----5-7-----------------------|
E|-----x-7--------x-7---------------------------|

G|----------------------------------------------|
D|----------------------------------------------|
A|----------------------------------------------|
E|5-5-0-0-3-0-5-5-0-0-3-5-----------------------|

Parte 2 de 3
G|----------------------------------------------|
D|----------------------------------------------|
A|-7---5-7---5-7--9---7-9---7-9--10------12-----|
E|---7-----7--------9-----9---------10-12-------|

G|----------------------------------------------|
D|----------------------------------------------|
A|-------10--9---7-9---7-9----------------------|
E|-10-12-------9-----9--------------------------|

Parte 3 de 3
G|----------------------------------------------|
D|--------------------------------5/7-7-7-7-----|
A|-7---5-7---5-7--9---7-9---7-9-----------------|
E|---7-----7--------9-----9---------------------|

G|----------------------------------------------|
D|-7-7-7-7--7-7-7-7--7-7-7-7--------------------|
A|----------------------------------------------|
E|----------------------------------------------|


[Solo de Guitarra]

Parte 1 de 3 (2x)
G|----------------------------------------------|
D|----------------------------------------------|
A|-5--5-5-5-------------------------------------|
E|----------2--2-2-2-0-3--3-3-3-0-3-3-6-6-3-3-6-|

Parte 2 de 3 (3x)
G|----------------------------------------------|
D|----------------------------------------------|
A|-5-5--2-2-2----------0-0-0-0------------------|
E|-------------3-3-3-3--------------------------|

Parte 3 de 3
G|----------------------------------------------|
D|----------------------------------------------|
A|-5-5-5-5--2-2-2-2---------0-0-0-0-------------|
E|------------------3-3-3-3---------------------|


[Quinta parte - 2x]

Não, não, não quero hora...

Parte 1 de 2 (2x)
G|----------------------------------------------|
D|----------------------------------------------|
A|-5-5--2-2-2-------0-0-0-0--2/-----------------|
E|--------------3-3-----------------------------|

Parte 2 de 2
G|----------------------------------------------|
D|---------------------------2/7-7-7-7--7-7-7-7-|
A|-5-5--2-2-2-------0-0-0-0---------------------|
E|--------------3-3-----------------------------|

G|----------------------------------------------|
D|-7-7-7-7--7-7-7-7-----------------------------|
A|----------------------------------------------|
E|----------------------------------------------|


[Sexta parte - Instrumental]

Parte 1 de 2 (7x)
G|----------------------------------------------|
D|----------------------------------------------|
A|-5-5--2-2-2-2-----0-0-0-0---------------------|
E|--------------3-3-----------------------------|

Parte 2 de 2 (5x + fade out)
G|----------------------------------------------|
D|----------------------------------------------|
A|-5-5--2-2-2-2---------------------------------|
E|--------------3-3-5-5-5-7---------------------|
Composição: Chico Amaral / Samuel Rosa Colaboração e revisão:
  • Reginaldo Costa

0 comentários

mostrar mais comentários

Conseguiu tocar?

2 tocaram 0 ainda não

Grave um vídeo tocando Vou Deixar e mande pra gente!

00:00 / 00:00
outros vídeos desta música
repetir qualidade Automático
Outros vídeos desta música
00:00 / 00:00
Automático
Capítulos
  • Tocando a música
  • Apresentação / Equipamentos
  • TAB - Introdução
  • TAB - Primeira parte - Parte 1 de 3
  • TAB - Primeira parte - Parte 2 de 3
  • TAB - Primeira parte - Parte 3 de 3
  • TAB - Segunda parte - Parte 1 de 3
  • TAB - Segunda parte - Parte 2 de 3
  • TAB - Segunda parte - Parte 3 de 3
  • TAB - Quarta parte
  • Solo de guitarra - Parte 1 de 3
  • Solo de guitarra - Parte 2 de 3
  • Solo de guitarra - Parte 3 de 3
  • Quita parte - Parte 1 de 2
  • Quita parte - Parte 2 de 2
  • Sexta parte - Parte 1 de 2
  • Sexta parte - Parte 2 de 2
  • Encerramento
OK