Cifra Club

Hard Time Killin Floor Blues

Skip James

Cifra: Principal (violão e guitarra)
Selo Cifra Club: esta cifra foi revisada para atender aos critérios oficiais da nossa Equipe de Qualidade.
tom: F#m
Intro

E|---------------------------------------------------------------------------|
B|--------------------------3------------------------------------------------|
G|---------------------------------------------------------------------------|
D|----b3--0--2--0--------0--------0------------------------------------------|
A|-----------------3--0------------------------------------------------------|
E|--------------------------0-----------0------------------------------------|

Verse

E|---------------0-----------0-----------0-----------0-----------------------|
B|---------------------------------------------------------------------------|
G|------------------------------2-----------2--------------------------------|
D|--------0--b3-----0--2-----------0--3--------0-----------------------------|
A|--0--3------------------3--------------------------------------------------|
E|------------------------------------------------0--------------------------|

E|-----------------0------------------0----------0---------------------------|
B|--------------0------------------0-----------------------------------------|
G|-----------------------------------------------------2p1---------/4p2------|
D|--------------------------------------------0-----0-----------0-------0----|
A|--------0--3--------0--3--0------------0h3---------------------------------|
E|--0--3------------------------5----------------3----------0----------------|

E|-0----------------------------------------0-----0-----0--0--0--------------|
B|------------------------------0--0--2--3-----3-----3-----3--3--------------|
G|-------2p1--------/4p2-----------------------------------------------------|
D|----0----------0--------0-----------------------0--------------------------|
A|------------0--------------0-----------------------------------------------|
E|-3----------------------------------------0--------------0-----------------|

Alternative Verse ending
E|------------------------------------------------0--------------------------|
B|---------------------------------------------------------------------------|
G|--------------------------------------------------------2p1--------/4p2----|
D|----------------------------------------------------0-----------0--------0-|
A|---------------------------------------------------------------------------|
E|------------------------------------------------3------------0-------------|

E|---------------------------------------------------------------------------|
B|-----0------0------0-----0-----0-----0-------------------------------------|
G|--------2-------------2-----------2-----------/4p2-------------------------|
D|--------0-------------0-----------0--------0--------0----------------------|
A|----------------0-----------------------0----------------------------------|
E|--3-------------------------3----------------------------------------------|

E|--------------------------------0------------------------------------------|
B|------0------0-------------------------------------------------------------|
G|----------2------------/4p2-----------2p1----------------------------------|
D|----------0---------0--------0-----0---------------------------------------|
A|-----------------0---------------------------------------------------------|
E|--3-----------------------------3----------0-------------------------------|

Instrumental part
E|---------------0-----------------0-----------------------------0------------|
B|------------------------------0---------------------------------------------|
G|----------------------------------------------------------------------------|
D|--------0--b3-----0--2--0------------------0--b3--2------0------------------|
A|--0--3---------------------3---------0--3------------b3---------------------|
E|------------------------------------------------------------0---------------|

E|-----------------0-----------------0----------0----------------------------|
B|--------------0-----------------0------------------------------------------|
G|----------------------------------------------------2p1--------/4h2--------|
D|-------------------------------------------0-----0----------0--------0-----|
A|--------0--3--------0--3--0-----------0h3----------------------------------|
E|--0--3-----------------------5----------------3----------0-----------------|

E|---------------------------------------------------------------------------|
B|-----0-----0--------------------0-----0------------------------------------|
G|--------2-----------/4p2-----------2------------/4p2-----------------------|
D|--------0--------0--------0--------0---------0--------0--------------------|
A|--------------0---------------------------0--------------------------------|
E|--3--------------------------3---------------------------------------------|

E|-----------------------------0---------------------------------------------|
B|-----0-----0---------------------------------------------------------------|
G|--------2-----------/4p2-----------2p1-------------------------------------|
D|--------0--------0--------0-----0------------------------------------------|
A|--------------0------------------------------------------------------------|
E|--3--------------------------3----------0----------------------------------|
Outros vídeos desta música
    15 exibições
      • ½ Tom
      • Am
      • Bbm
      • Bm
      • Cm
      • C#m
      • Dm
      • Ebm
      • Em
      • Fm
      • F#m
      • Gm
      • G#m
    • Adicionar à lista

    Afinação da cifra

    Afinador online

      0 comentários

      Ver todos os comentários

      Entre para o Cifra Club PRO

      Tenha acesso a benefícios exclusivos no App e no Site

      • Chega de anúncios

      • Mais recursos no app do Afinador

      • Atendimento Prioritário

      • Aumente seu limite de lista

      • Ajude a produzir mais conteúdo

      Cifra Club Pro

      Aproveite o Cifra Club com benefícios exclusivos e sem anúncios
      Cifra Club Pro
      Aproveite o Cifra Club com benefícios exclusivos e sem anúncios
      OK