Notificações Amigos pendentes

      Slash

      Anastasia

      177.387 exibições
      Tom: C Afinação: Eb Ab Db Gb Bb Eb
      Introdução 1:
      
      (Violão)
      
      
         Dm
      E|-------1---------------1------------------|
      B|-----3---3-----------3---3----------------|
      G|---2-------2---2---2-------2---2----------|
      D|-0-----------0---0-----------0------------|
      A|------------------------------------------|
      E|------------------------------------------|
      
      
         Bb
      E|-------1---------------1------------------|
      B|-----3---3-----------3---3----------------|
      G|---3-------3---3---3-------3---3----------|
      D|------------------------------------------|
      A|-1-----------1---1-----------1------------|
      E|------------------------------------------|
      
      
         Bm6(5-)
      E|-------1---------------1-------1----------|
      B|-----3---3-----------3-------3------------|
      G|---0-------0---0---0-------0--------------|
      D|------------------------------------------|
      A|-2-----------2-----------2----------------|
      E|-----------------3------------------------|
      
      
         C
      E|-------0-------0--------------------------|
      B|-----1---1-------1-----1------------------|
      G|---0-------0-------0-----0---0------------|
      D|---------------------------2--------------|
      A|-3-----------3-------3---------3----------|
      E|------------------------------------------|
      
      
         A7/C#   A7
      E|-------0-------0--------------------------|
      B|-----2-------2---5--5--5\3--2-------------|
      G|---0-------0------------------------------|
      D|-----------------5--5--5\3--2-------------|
      A|-4-------0--------------------------------|
      E|------------------------------------------|
      
      
         Dm                      C6(9)
      E|-------1---------------1-------0----------|
      B|-----3---3-----------3-------3------------|
      G|---2-------2---2---2-------2--------------|
      D|-0-----------0---0------------------------|
      A|-------------------------3----------------|
      E|------------------------------------------|
      
      
         Bb      A       C       G
      E|-------1-------0-------0------------------|
      B|-----3-------2-------1---------0----------|
      G|---3-------2-------0---------0------------|
      D|---------------------------0--------------|
      A|-1-------0-------3------------------------|
      E|-------------------------3----------------|
      
      
         Bb      F       E
      E|---------------------------0--------------|
      B|-------3-------1---------0---0------------|
      G|-----3-------2---------1-------1----------|
      D|---3-------3---------2-----------2--------|
      A|-1-----------------2----------------------|
      E|---------1-------0------------------------|
      
      
                 A7
      E|-----------------0-3---3---3--1h3p1p0-0---|
      B|---------------2--------------------------|
      G|-1-----------0----------------------------|
      D|-----2-----2------------------------------|
      A|---2-----0--------------------------------|
      E|-------0----------------------------------|
      
      
      E|-1p0--------0h1p0h1p...-------------------|
      B|------2-----------------------------------|
      G|---------2--------------------------------|
      D|------------------------------------------|
      A|------------------------------------------|
      E|------------------------------------------|
      
      
      
      Introdução 2:
      
      
         D5
      E|----13-12-13-10-13-12-13----13-12-13-10-13-12-13----|
      B|-10----------------------10-------------------------|
      G|----------------------------------------------------|
      D|----------------------------------------------------|
      A|----------------------------------------------------|
      E|----------------------------------------------------|
      
      
         D5+
      E|----13-12-13-10-13-12-13----13-12-13-10-13-12-13----|
      B|-11----------------------11-------------------------|
      G|----------------------------------------------------|
      D|----------------------------------------------------|
      A|----------------------------------------------------|
      E|----------------------------------------------------|
      
      
         G
      E|----15-13-15-12-15-13-15----15-13-15-12-15-13-15----|
      B|-12----------------------12-------------------------|
      G|----------------------------------------------------|
      D|----------------------------------------------------|
      A|----------------------------------------------------|
      E|----------------------------------------------------|
      
      
         C
      E|----15-12-15-13-15-12-15----15-12-15-13-15-12-15----|
      B|-13----------------------13-------------------------|
      G|----------------------------------------------------|
      D|----------------------------------------------------|
      A|----------------------------------------------------|
      E|----------------------------------------------------|
      
      
         A
      E|----17-15-17-12-17-15-17----17-15-17-12-17-15-17----|
      B|-14----------------------14-------------------------|
      G|----------------------------------------------------|
      D|----------------------------------------------------|
      A|----------------------------------------------------|
      E|----------------------------------------------------|
      
      
         Dm
      E|----17-13-17-12-17-13-17----17-13-17-12-17-13-17----|
      B|-15----------------------15-------------------------|
      G|----------------------------------------------------|
      D|----------------------------------------------------|
      A|----------------------------------------------------|
      E|----------------------------------------------------|
      
      
         Bb5         A5          C5          G5
      E|----18-17-18----17-15-17----15-14-15----15-14-15----|
      B|-15----------14----------13----------12-------------|
      G|----------------------------------------------------|
      D|----------------------------------------------------|
      A|----------------------------------------------------|
      E|----------------------------------------------------|
      
      
         Bb5         F5          E5
      E|----13-12-13----13-12-13---12-11-12-x-12-11-12------|
      B|-11----------10----------9--------------------------|
      G|----------------------------------------------------|
      D|----------------------------------------------------|
      A|----------------------------------------------------|
      E|----------------------------------------------------|
      
      
         A5          E5         G5         D5
      E|----------------------------------------------------|
      B|-10-13-12-13-9-12-10-12-8-12-10-12---10-9-10--------|
      G|-----------------------------------7----------------|
      D|----------------------------------------------------|
      A|----------------------------------------------------|
      E|----------------------------------------------------|
      
      
         F5       C5      E5
      E|----------------------------------------------------|
      B|-6-10-8-6---8-7-8-7h8p7p6p5~------15b17~~-----------|
      G|----------5------------------5/14-------------------|
      D|----------------------------------------------------|
      A|----------------------------------------------------|
      E|----------------------------------------------------|
      
      
      
      Introdução 3:
      
      
      E|----------------------------------------------------|
      B|----------------------------------------------------|
      G|----------------------------------------------------|  (3x)
      D|----------------------------------------------------|
      A|----------------------------------------------------|
      E|-5p0-5p0-3h5-0-5p0-5-3-0-3p0-3h5--------------------|
      
      
      E|-5-x-5----------5-----------------------------------|
      B|-5-x-5----------5-----------------------------------|
      G|-------8b9r8--7---5h6p5-----------------------------|
      D|------------------------7-5-5h7--5h7~---------------|
      A|----------------------------------------------------|
      E|----------------------------------------------------|
      
      
      
      Primeira Parte:
      
         P.M .   .   . .   . . . .   .
      
      E|----------------------------------------------------|
      B|----------------------------------------------------|
      G|----------------------------------------------------|
      D|----------------------------------------------------|
      A|----------------------------------------------------|
      E|-5p0-5p0-3h5-0-5p0-5-3-0-3p0-3h5--------------------|
      
      
        A5
      Blood red sky on a desert road
      
      Gotta make my way down to Mexico
       F7M/A
      For what I did
          G6/A             A5
      I know that it was wrong
      
      (Passagem 1)
      
         P.M .        . .   .      .
      
      E|----------------------------------------------------|
      B|----------------------------------------------------|
      G|----------------------------------------------------|
      D|----------------------------------------------------|
      A|----------------------3b5---------------------------|
      E|-5p0-5p0-3b5--0-5p0-5------5p0-3b5------------------|
      
      
           A5
      The fire in my heart it will never die
      
      Everything I love will be left behind
          F7M/A
      No turning back
         G6/A         A5
      Forever gone tonight
      
      
      Refrão:
      
              D5
      All my love 
           Bb5
      Anastasia
           G5
      Anastasia
                C5              D5
      This may be our last goodbye
                 Bb5
      You can't save me
            C5
      I am fading
               A5
      Blood is on my hands tonight
      
      
      E|----------------------------------------------------|
      B|----------------------------------------------------|
      G|----------------------------------------------------|
      D|----------------------------------------------------|
      A|----------------------------------------------------|
      E|-5p0-5p0-3b5--0-5p0-5-3b5--5p0-3b5------------------|
      
      
      E|----------------------------------------------------|
      B|----------------------------------------------------|
      G|----------------------------------------------------|
      D|----------------------------------------------------|
      A|----------------------------------------------------|
      E|-5p0-5p0-3h5-0-5p0-5-3-0-3p0-3h5--------------------|
      
      
      E|----------------------------------------------------|
      B|----------------------------------------------------|
      G|---------------7b8r7--6-----------------------------|
      D|------------------------7---5-----------------------|
      A|--------------------------7---7-5-3b----------------|
      E|-5p0-5p0-3h5-0--------------------------------------|
      
      
      
      Segunda Parte:
      
      A5
      All I need is a miracle
      
      Lawmen got me running now forevermore
               F7M/A
      They'll hunt me down 
         G6/A           A5
      Until the end of time
      
      A5
      Oh my mama, now I've got to go
      
      Never love another how I loved you so
           F7M/A
      I'm so afraid 
          G6/A             A5
      To leave this all behind
      
      
      Refrão:
      
              D5
      All my love 
           Bb5
      Anastasia
           G5
      Anastasia
                C5              D5
      This may be our last goodbye
                 Bb5
      You can't save me
            C5
      I am fading
               A5
      Blood is on my hands tonight
      
      
      Ponte: G5
      
      
         G5
      E|----------------------------------------------------|
      B|----------------------------------------------------|
      G|----------------------------------------------------|  (3x)
      D|---5-----4-----3-----2---2-3p2p0--------------------|
      A|-----5-----5-----5----------------------------------|
      E|-3-----3-----3-----3---3----------------------------|
      
      
      E|----------------------------------------------------|
      B|----------------------------------------------------|
      G|-0--12p0--0-11p0--0-10p0--0-10-0-9h10-9-------------|
      D|----------------------------------------12----------|
      A|----------------------------------------------------|
      E|----------------------------------------------------|
      
      
      
      Solo: D5  D5+  G  C  A  Dm
            ( Bb5  A5  C5  G5  Bb5  F5  E5  A5 )
            D5  Bb5  G5  C5  A5  D5
            ( Bb5  A5  C5  G5  Bb5  F5  E5 )
            ( A5  E5  G5  D5  F5  C5  E5 )
            A5
      
      (Parte 1)
      
      
         D5
      E|----13-12-13-10-13-12-13----13-12-13-10-13-12-13----|
      B|-10----------------------10-------------------------|
      G|----------------------------------------------------|
      D|----------------------------------------------------|
      A|----------------------------------------------------|
      E|----------------------------------------------------|
      
      
         D5+
      E|----13-12-13-10-13-12-13----13-12-13-10-13-12-13----|
      B|-11----------------------11-------------------------|
      G|----------------------------------------------------|
      D|----------------------------------------------------|
      A|----------------------------------------------------|
      E|----------------------------------------------------|
      
      
         G
      E|----15-13-15-12-15-13-15----15-13-15-12-15-13-15----|
      B|-12----------------------12-------------------------|
      G|----------------------------------------------------|
      D|----------------------------------------------------|
      A|----------------------------------------------------|
      E|----------------------------------------------------|
      
      
         C
      E|----15-12-15-13-15-12-15----15-12-15-13-15-12-15----|
      B|-13----------------------13-------------------------|
      G|----------------------------------------------------|
      D|----------------------------------------------------|
      A|----------------------------------------------------|
      E|----------------------------------------------------|
      
      
         A
      E|----17-15-17-12-17-15-17----17-15-17-12-17-15-17----|
      B|-14----------------------14-------------------------|
      G|----------------------------------------------------|
      D|----------------------------------------------------|
      A|----------------------------------------------------|
      E|----------------------------------------------------|
      
      
         Dm
      E|----17-13-17-12-17-13-17----17-13-17-12-17-13-17----|
      B|-15----------------------15-------------------------|
      G|----------------------------------------------------|
      D|----------------------------------------------------|
      A|----------------------------------------------------|
      E|----------------------------------------------------|
      
      
         Bb5         A5          C5          G5          Bb5
      E|----18-17-18----17-15-17----15-14-15----15-14-15----|
      B|-15----------14----------13----------12----------11-|
      G|----------------------------------------------------|
      D|----------------------------------------------------|
      A|----------------------------------------------------|
      E|----------------------------------------------------|
      
      
                  F5          E5                     A5
      E|-13-12-13----13-12-13---12-11-12-12-12-11h12--------|
      B|----------10----------9----------------------15b17~~|
      G|----------------------------------------------------|
      D|----------------------------------------------------|
      A|----------------------------------------------------|
      E|----------------------------------------------------|
      
      
      (Parte 2)
      
      
      E|-10-------------10----------------10-------12b13----|
      B|----10-13b15~------13p10-13b15~~-----13p10----------|
      G|----------------------------------------------------|
      D|----------------------------------------------------|
      A|----------------------------------------------------|
      E|----------------------------------------------------|
      
      
      E|-b13r12p10-12~~--10----13b15----15b17--13b15r13-----|
      B|--------------------10------------------------------|
      G|----------------------------------------------------|
      D|----------------------------------------------------|
      A|----------------------------------------------------|
      E|----------------------------------------------------|
      
      
      E|-13-15-13h15p13p12h13p12b13r12----------------------|
      B|--------------------------------13----13~-----------|
      G|-----------------------------------12---------------|
      D|----------------------------------------------------|
      A|----------------------------------------------------|
      E|----------------------------------------------------|
      
      
      (Parte 3)
      
      
      E|----------------------------------------------------|
      B|-----14~---14-15-17-17b18r17~---17b18--17-15-17-18--|
      G|-/14------------------------------------------------|
      D|----------------------------------------------------|
      A|----------------------------------------------------|
      E|----------------------------------------------------|
      
      
      E|----------------------------------------------------|
      B|-17h18p17p15\14h15h17p15p14----15-------------------|
      G|----------------------------17----17b19~~-----------|
      D|----------------------------------------------------|
      A|----------------------------------------------------|
      E|----------------------------------------------------|
      
      
      (Parte 4)
      
      
      E|-------------15h17p15----------------15h17h18p17p15-|
      B|-13/15h17h18----------18-17-15h17h18----------------|
      G|----------------------------------------------------|
      D|----------------------------------------------------|
      A|----------------------------------------------------|
      E|----------------------------------------------------|
      
      
      E|----------------15h17h18/20--18-17-17h18p17p15------|
      B|-18-17-15h17h18-------------------------------------|
      G|----------------------------------------------------|
      D|----------------------------------------------------|
      A|----------------------------------------------------|
      E|----------------------------------------------------|
      
      
      E|----------------------------------------------------|
      B|-18-17-15h17h18p17p15h17~~--------------------------|
      G|----------------------------------------------------|
      D|----------------------------------------------------|
      A|----------------------------------------------------|
      E|----------------------------------------------------|
      
      
      (Parte 5)
      
      
      E|-15-17-15----15-------------------------------------|
      B|----------18----18-17-15-17h18p17p15-17-15-------15-|
      G|-------------------------------------------17-15----|
      D|----------------------------------------------------|
      A|----------------------------------------------------|
      E|----------------------------------------------------|
      
      
      E|----------------------------------------------------|
      B|----------------------------------------------------|
      G|-17-15h17p15\14--15--14h15p14\12--------------------|
      D|----------------------------------13--12~-----------|
      A|----------------------------------------------------|
      E|----------------------------------------------------|
      
      
      (Parte 6)
      
      
      E|--------------------15b17~~--18b22------------------|
      B|-----15b17~~r15p12----------------------------------|
      G|----------------------------------------------------|
      D|-/14------------------------------------------------|
      A|----------------------------------------------------|
      E|----------------------------------------------------|
      
      
      
      Refrão:
      
              D5
      All my love 
           Bb5
      Anastasia
           G5
      Anastasia
                C5              D5
      This may be our last goodbye
                 Bb5
      You can't save me
            G5
      I am fading
               C5             D5
      Blood is on my hands tonight
      
           Bb5
      Anastasia
           G5
      Anastasia
                C5           D5
      For your honor took a life
                 Bb5
      You can't save me
            G5
      I am fading
               A5                 A5
      Blood is on my hand tonight
      
      Final: A  Dm/A  G/A  A
             A  Dm/A  G/A  G7/A  A
        Composição: M. Kennedy / S. HudsonColaboração e revisão:
        • v.inny
        • Wellyton
        • Breno Bernardes
        • Andy
        • +2

        Comentários 78

        140 .
        • edinaldo edinaldo: Em 01/08/2015 21:59

          o ultimo solo... poderia ter deixado a tab. pra quem tem dificuldade de improvissos.

        • Ricardo Ricardo: Em 04/05/2015 03:34

          El último solo que es el más lindo no lo toca!!!! Me gustaría poder escucharlo más lento!!!

        • Marcello Marcello: Em 25/04/2015 21:17

          Ser ninja é uma coisa tocar essa música é completamente diferente

        • Gabriel Gabriel: Em 19/04/2015 11:52

          qual o tom do solo final??

        • Alan Alan: Em 06/04/2015 20:17

          A próxima poderia ser World on Fire!! \o/

        • faustino.artur faustino.artur: Em 21/03/2015 00:42

          Mais alguém acha o solinho da introdução parecido com "índios" da legião urbana?! rs

          • Mandean Mandean: Em 02/04/2016 21:11

            Parece msm... Slixo plagiou índios do L.U kk

        • Junior Junior: Em 18/03/2015 12:59

          Civil war versão acústico seria uma aula legal também

          • jhuan jhuan: Em 08/05/2015 22:46

            Concordo plenamente Junior! Aquela musica e muito loka

        • Vitor Vitor: Em 08/03/2015 10:39

          na boa esse solo nãoo é tão difícil.

        140 cancelar

        conseguiu tocar?

        • •••
        Miguel2.399 visualizações
          ver covers de outras músicas »
          0:00 / 0:00
          1 versão de violão dificuldade exibições contribuição e correção
          1 versão de guitarra dificuldade exibições contribuição e correção
          1 versão de cavaco dificuldade exibições contribuição e correção
          1 versão de teclado dificuldade exibições contribuição e correção
          play/pausefechar subir/descer velocidade
          6ª corda E5ª corda A4ª corda D3ª corda G2ª corda B1ª corda E
            acordes
            transcrição verificada v.inny instrutor de guitarra
            publicidade
            fechar
            ok