Cifra Club

Aprenda

Black

Slash

Cifra: Principal (violão e guitarra)
Já pensou em usar uma coleção de roupas do Cifra Club? Responda as perguntas abaixo e nos ajude nessa missão! →
tom: B (forma dos acordes no tom de C) Afinação: Eb Ab Db Gb Bb Eb
Introdução 1:
(Violão)
    Dm
E|-------1---------------1------------------|
B|-----3---3-----------3---3----------------|
G|---2-------2---2---2-------2---2----------|
D|-0-----------0---0-----------0------------|
A|------------------------------------------|
E|------------------------------------------|

    A#
E|-------1---------------1------------------|
B|-----3---3-----------3---3----------------|
G|---3-------3---3---3-------3---3----------|
D|------------------------------------------|
A|-1-----------1---1-----------1------------|
E|------------------------------------------|

    Bm6(5-)
E|-------1---------------1-------1----------|
B|-----3---3-----------3-------3------------|
G|---0-------0---0---0-------0--------------|
D|------------------------------------------|
A|-2-----------2-----------2----------------|
E|-----------------3------------------------|

    C
E|-------0-------0--------------------------|
B|-----1---1-------1-----1------------------|
G|---0-------0-------0-----0---0------------|
D|---------------------------2--------------|
A|-3-----------3-------3---------3----------|
E|------------------------------------------|

    A7/C#   A7
E|-------0-------0--------------------------|
B|-----2-------2---5--5--5\3--2-------------|
G|---0-------0------------------------------|
D|-----------------5--5--5\3--2-------------|
A|-4-------0--------------------------------|
E|------------------------------------------|

    Dm                      C6(9)
E|-------1---------------1-------0----------|
B|-----3---3-----------3-------3------------|
G|---2-------2---2---2-------2--------------|
D|-0-----------0---0------------------------|
A|-------------------------3----------------|
E|------------------------------------------|

    A#      A       C       G
E|-------1-------0-------0------------------|
B|-----3-------2-------1---------0----------|
G|---3-------2-------0---------0------------|
D|---------------------------0--------------|
A|-1-------0-------3------------------------|
E|-------------------------3----------------|

    A#      F       E
E|---------------------------0--------------|
B|-------3-------1---------0---0------------|
G|-----3-------2---------1-------1----------|
D|---3-------3---------2-----------2--------|
A|-1-----------------2----------------------|
E|---------1-------0------------------------|

            A7
E|-----------------0-3---3---3--1h3p1p0-0---|
B|---------------2--------------------------|
G|-1-----------0----------------------------|
D|-----2-----2------------------------------|
A|---2-----0--------------------------------|
E|-------0----------------------------------|

E|-1p0--------0h1p0h1p...-------------------|
B|------2-----------------------------------|
G|---------2--------------------------------|
D|------------------------------------------|
A|------------------------------------------|
E|------------------------------------------|
Compositor não encontrado.
Colaboração e revisão:
  • Chipanze Top
193 exibições
    • ½ Tom
    • A
    • Bb
    • B
    • C
    • Db
    • D
    • Eb
    • E
    • F
    • F#
    • G
    • Ab
  • Adicionar à lista

    0 comentários

    Ver todos os comentários
    00:00 / 00:00
    Outros vídeos desta música
    Repetir Qualidade Automático
    Outros vídeos desta música
    00:00 / 00:00
    Automático

    Cifra Club Pro

    Aproveite o Cifra Club com benefícios exclusivos e sem anúncios
    Cifra Club Pro
    Aproveite o Cifra Club com benefícios exclusivos e sem anúncios
    OK