Cifra Club

Aprenda

By The Sword

Slash

Cifra: Principal (violão e guitarra)
tom: Eb (forma dos acordes no tom de E) Afinação: Eb Ab Db Gb Bb Eb
Intro:
E|-----------------------------------|
B|-----------------------------------|
G|--------------------------------2--|
D|--------------------------------2--|
A|--------0---3b--0----0----------0--|
E|--0--3-----------------3--0--3b----|

E|-----------------------------------|
B|--------------------------------3--|
G|-----------------------------0--2--|
D|-----------0-----------------0--0--|
A|--------0------3---0---------x--0--|
E|--0--3-----------------3--0--3-----|

-- Variação --

(Elétrico):

E|-----------------------------------|
B|-----------------------------------|
G|-----------------------------------|
D|-----------5---5----------------3--|
A|-----------3---2----------------3--|
E|--0--3--5----------5--3--0------1--|

(Acústico):

E|-----------0------------------------|
B|-----------1------------------------|
G|-----------0---(0)------------------|
D|-----------2---(0)---------------3--|
A|--------0--3----2--0-------------3--|
E|--0--3----------------3--0--(3)--1--|

-- Fim Variação --

E|-----------------------------------|
B|--------------------------------3--|
G|-----------------------------0--2--|
D|-----------0-----------------0--0--|
A|--------0------3---0---------x--0--|
E|--0--3-----------------3--0--3-----|

E|-----|
B|-----|
G|--2--|
D|--2--|
A|--0--|
E|-----|

Verso:
E|-------------------------------------|---------------------------------------|
B|-------------------------------------|---------------------------------------|
G|------------5------------------------|------------7----5-------------------7-|
D|------5--7-----7----7-p-5-----5----7-|------5--7------------7-p-5-----5----7-|
A|--/7-----------------------7-------0-|--/7-------------------------7---------|
E|-------------------------------------|---------------------------------------|
                                                         OR
e|----------------------------------------|                                     
B|-------------------------------------3--|                                     
G|------------7----5-------------------2--|                                     
D|------5--7-----------7-p-5-----5-----0--|                                     
A|--/7------------------------7-----------|                                     
E|----------------------------------------|                                     

E|--------------------------------------|--------------------------------------|
B|-----------------------------------6--|--------------------------------------|
G|------------5---4------------------5--|------------5-------------------------|
D|------5--7----------7-p-5-----5----3--|------5--7-----7----7-p-5-----5----7--|
A|--/7-----------------------7----------|--/7-----------------------7-------0--|
E|--------------------------------------|--------------------------------------|

Refrão:
       D       F      Am        G       D       F      Am
--2--   --1--   --0--   --3--   --2--   --1--   --0--          |--3----(4)--|
--3--   --1--   --1--   --3--   --3--   --1--   --1--          |--3----(4)--|
--2--   --2--   --2--   --0--   --3--   --2--   --2--          |--0-----5---|
--0--   --3--   --2--   --0--   --0--   --3--   --2--          |--0-----6---|
-(0)-   --3--   --0--   --x--   -(0)-   --3--   --0--          |--x-----6---|
-----   --1--   -----   --3--   -----   --1--   -----          |--3-----4---|

E|-----------------------------------|-----------------------------------|
B|-----------------------------------|--------------------------------3--|
G|--------------------------------2--|-----------------------------0--2--|
D|--------------------------------2--|-----------------------------0--0--|
A|-----------3--------------------0--|-----------5---3-------------x--0--|
E|--0--3--5------5----5--3--0--3-----|--0--3--5-----------5--3--0--3-----|

E|-----------------------------------|--x-3-----x(4)-----------|
B|-----------------------------------|--x-3-----x(4)-----------|
G|-----------------------------0--2--|--x-0-----x-5---------2--|
D|-----------5---5-------------0--3--|--x-0-----x-6---------2--|
A|-----------3---2-------------x--3--|--x-x-----x-6---------0--|
E|--0--3--5-----------5--3--0--3--1--|--x-3-----x-4------------|

(Verso)

(Refrão)

Ponte:
E|--5-5-5-5-x-x-5-5-5-5-x-x-5---|--5-5-5-5-x-x-5-5-5-5---x-5---|
B|--5-5-5-5-x-x-5-5-5-5-x-x-7---|--7-7-7-7-x-x-7-7-7-7---x-6---|
G|--5-5-5-5-x-x-5-5-5-5-x-x-5---|--5-5-5-5-x-x-5-5-5-5---x-5---|
D|--7-7-7-7-x-x-7-7-7-7-x-x-7---|--7-7-7-7-x-x-7-7-7-7---x-7---|
A|0-----------------------------|------------------------------|
E|------------------------------|------------------------------|

E|--5-5-5-5-x-x-5-5-5-5-x-x-5---|--5-5-5-5-x-x-1-1-1-x-3-3-3--|
B|--6-6-6-6-x-x-6-6-6-6-x-x-7---|--7-7-7-7-x-x-1-1-1-x-3-3-3--|
G|--5-5-5-5-x-x-5-5-5-5-x-x-5---|--5-5-5-5-x-x-2-2-2-x-4-4-4--|
D|--7-7-7-7-x-x-7-7-7-7-x-x-7---|--7-7-7-7-x-x-3-3-3-x-5-5-5--|
A|------------------------------|-----------------------------|
E|------------------------------|-----------------------------|

E|--5-5-5-5-x-x-5-5-5-5-x-x-5---|--5-5-5-5-x-x-5-5-5-5---x-5---|
B|--5-5-5-5-x-x-5-5-5-5-x-x-7---|--7-7-7-7-x-x-7-7-7-7---x-6---|
G|--5-5-5-5-x-x-5-5-5-5-x-x-5---|--5-5-5-5-x-x-5-5-5-5---x-5---|
D|--7-7-7-7-x-x-7-7-7-7-x-x-7---|--7-7-7-7-x-x-7-7-7-7---x-7---|
A|0-----------------------------|------------------------------|
E|------------------------------|------------------------------|

E|--5-5-5-5-x-x-5-5-5-5-x-x-5---|--5-5-5-5----------------------|
B|--6-6-6-6-x-x-6-6-6-6-x-x-7---|--7-7-7-7----------------------|
G|--5-5-5-5-x-x-5-5-5-5-x-x-5---|--5-5-5-5-------------------2--|
D|--3-3-3-3-x-x-3-3-3-3-x-x-7---|--7-7-7-7----x-3---x-5------2--|
A|------------------------------|-------------x-3---x-5------0--|
E|------------------------------|-------------x-1---x-3---------|

Solo:
E|------------------------------------|--------------------------------------|
B|------------------------------------|--------------------------------------|
G|--------5--7b--7b--7br-----4--5-----|--------5--7b--7b--7b--7br--5--7------|
D|-5-h-7---------------------------3--|--5h-7----------------------------4---|
A|------------------------------------|--------------------------------------|
E|------------------------------------|--------------------------------------|

E|---------------------------------|------------------------------------5-|
B|------------8--------------------|--------------------------------------|
G|--------5--10b----10--10--9--9b--|--9r---7--9--7\-5------7-p-5\-4/-5----|
D|-5-h-7---------------------------|--------------------------------------|
A|---------------------------------|--------------------------------------|
E|---------------------------------|--------------------------------------|
         +2
E|------------------------------------------------------14brbrbrbr----------|
B|------13-15-15b---r15p13------13brbrbr---12brbrbrbr----------------12br---|
G|--14---------------------14-----------------------------------------------|
D|--------------------------------------------------------------------------|
A|--------------------------------------------------------------------------|
E|--------------------------------------------------------------------------|

E|----------17--13--12--13--12\-8--12--8\-7--8--7-h-8-p-7------------------|
B|------13-------------------------------------------------10-----8--(10)--|
G|--14---------------------------------------------------------9-----------|
D|-------------------------------------------------------------------------|
A|-------------------------------------------------------------------------|
E|-------------------------------------------------------------------------|

E|--15b----15b--15--12-------------------------------------|
B|----------------------15b--15----13------13--15------13--|
G|-------------------------------------14----------14------|
D|---------------------------------------------------------|
A|---------------------------------------------------------|
E|---------------------------------------------------------|

E|------------------------------------|
B|--15--13--15br----13------15b--15b--|
G|----------------------14------------|
D|------------------------------------|
A|------------------------------------|
E|------------------------------------|

E|-------------------------------------------------------------------------|
B|--pb15--pb15--pb15--pb15--pb15--pbr15--13--15--13--12--13--12h13p12------|
G|---------------------------------------------------------------------14--|
D|-------------------------------------------------------------------------|
A|-------------------------------------------------------------------------|
E|-------------------------------------------------------------------------|
                 +1/2
E|------------------------------------------------15b--|
B|--------------12br------13---15br--13--15--13--------|
G|------12--14--------14-------------------------------|
D|--14-------------------------------------------------|
A|-----------------------------------------------------|
E|-----------------------------------------------------|
                                                   +2
E|--17--19--19b----19br-p17-19b----pbr19--17------20b--20---17------17------|
B|--------------------------------------------17----------------20-----20b--|
G|--------------------------------------------------------------------------|
D|--------------------------------------------------------------------------|
A|--------------------------------------------------------------------------|
E|--------------------------------------------------------------------------|
                                                             +1/2
E|--17------------------------------------------------------------|
B|------20--17--------------------17--20--------------------------|
G|--------------19br--17--19b-------------prb19------17--19--19b--|
D|----------------------------------------------------------------|
A|----------------------------------------------------------------|
E|----------------------------------------------------------------|
Composição de Andrew Stockdale / Saul Hudson
102.998 exibições
  • Simplificar cifra
    • ½ Tom
    • A
    • Bb
    • B
    • C
    • Db
    • D
    • Eb
    • E
    • F
    • F#
    • G
    • Ab
  • Adicionar à lista

    0 comentários

    Ver todos os comentários
    00:00 / 00:00
    outros vídeos desta música
    repetir qualidade Automático
    Outros vídeos desta música
    00:00 / 00:00
    Automático

    Cifra Club Pro

    Aproveite o Cifra Club com benefícios exclusivos e sem anúncios
    Cifra Club Pro
    Aproveite o Cifra Club com benefícios exclusivos e sem anúncios
    OK