Cifra Club

Aprenda

Godfather

Slash

Cifra: Principal (violão e guitarra)
tom: E
E|-----------------------------------------------------------------|
B|--15----14--15--16---15--15-------15----14--15--16----15--15-----|
G|-----------------------------15-------------------------------14-|
D|-----------------------------------------------------------------|
A|-----------------------------------------------------------------|
E|-----------------------------------------------------------------|

E|-----------------------------------------------------------------|
B|-15---14--15--17b18--15--14--15--15b17-----------14--14b15r14----|
G|----------------------------------------14b15r14---------------14|
D|-----------------------------------------------------------------|
A|-----------------------------------------------------------------|
E|-----------------------------------------------------------------|

E|--------10---13---12p10---13---10---12---10----------------------|
B|---10-----------------------------------------11---13---10-------|
G|-----------------------------------------------------------------|
D|-----------------------------------------------------------------|
A|-----------------------------------------------------------------|
E|-----------------------------------------------------------------|

E|--------10---13---12p10---13---10---10---------------------------|
B|---10------------------------------------10---9---8--------------|
D|-----------------------------------------------------------------|
A|-----------------------------------------------------------------|
E|-----------------------------------------------------------------|

E|-------6---10b12----------6---9---9b10r9---9b10------------------|
B|---8------------------8------------------------------------------|
G|-----------------------------------------------------------------|
A|-----------------------------------------------------------------|
E|-----------------------------------------------------------------|

E|-----------------------------------------------------------------|
B|--10--11p10--10/13----10--11--10---------------------------------|
G|--------------------------------------10-------------------------|
D|------------------------------------------11--12-----------------|
A|-----------------------------------------------------------------|
E|-----------------------------------------------------------------|

E|--------------------12-------------------------------------------|
B|--15--15--14--13--------13--11--10-------------------------------|
G|-------------------------------------12b14--14r12---14b15--15r14-|
D|-----------------------------------------------------------------|
A|-----------------------------------------------------------------|
E|-----------------------------------------------------------------|

E|------------------------------------------------10--13-----------|
B|----------------------------------------10--13-------------------|
G|----------------------------10--12--13---------------------------|
D|--------------------10--12---------------------------------------|
A|----------10--11--12---------------------------------------------|
E|--10--13---------------------------------------------------------|


Composição de Slash
Colaboração e revisão:
  • Informalizando
379 exibições
    • ½ Tom
    • A
    • Bb
    • B
    • C
    • Db
    • D
    • Eb
    • E
    • F
    • F#
    • G
    • Ab
  • Adicionar à lista

    0 comentários

    Ver todos os comentários
    00:00 / 00:00
    outros vídeos desta música
    repetir qualidade Automático
    Outros vídeos desta música
    00:00 / 00:00
    Automático

    Cifra Club Pro

    Aproveite o Cifra Club com benefícios exclusivos e sem anúncios
    Cifra Club Pro
    Aproveite o Cifra Club com benefícios exclusivos e sem anúncios
    OK