Cifra Club

Aprenda

No More Heroes

Slash

Cifra: Principal (violão e guitarra)
Já pensou em usar uma coleção de roupas do Cifra Club? Responda as perguntas abaixo e nos ajude nessa missão! →
tom: Db (forma dos acordes no tom de D) Afinação: Eb Ab Db Gb Bb Eb
Intro:
Riff 1:
E|-------------------------------------------------------------
B|-------------------------------------------------------------
G|9--------8-------10------10--s12-10---10-s12-----------------
D|-------------------------------------------------------------
A|-------------------------------------------------------------
E|-------------------------------------------------------------

E|-------------------------------------------------------------
B|-------------------------------------------------------------
G|9------8------7------7br-5-----------------------------------
D|-------------------------------------------------------------
A|-------------------------------------------------------------
E|-------------------------------------------------------------

Riff 2:
E|--------------------------------------------------------------------------------------------------
B|--------12---------12------------12---------12------------10--------10------------14---14b15--12--
G|----13--------13------------12---------12------------11--------11------------14-------------------
D|------14---------14-----------12----9-----12------------12--------12------------14----------------
A|-----------14------------10---------------------------------12----------------------12------------
E|-/12----------------------------------------------10-----------------------12---------------------

Verso

E|----------------------------------------------------------------------------------------------
B|---9-------------8------------7----------5----------------------------------------------------
G|---9-------------7------------7----------6---------------------------------------------------- 2X
D|---9-------------9------------7----------7----------------------------------------------------
A|----------------------------------------------------------------------------------------------
E|----------------------------------------------------------------------------------------------

E                   G
Took a shot in the dark
             D
Though the aim was true
              A
Still it missed the mark
E      G           D             A
As we wait for a hero we can't find

Riff 2:E G D A palhetando com Pull Off
Now I know, now I realize
It's a hard line
Once you cross you're on your own
But I won't lie, I'm not satisfied
We can't wait much longer

Refrão:

E|--------------------------------------------------------------------------------
B|--------------------------------------------------------------------------------
G|--------------------------------------------------------------------------------
D|--7-7-7-7----7---7-----5-5-5-5-------7-7----------------------------------------
A|--9-9-9-9----9-7-9-7---3-3-3-3--5-5--5-5-7-7------5-----------------------------
E|---------------9---9------------3-3------5-5--5h7---5h7-------------------------



When your heroes, turn to the enemy

And there's nothing left to hold

When your heroes, give only apologies

I won't deny it leaves me cold

Riff 1:

Verso 2 Só que mais rapido

E|----------------------------------------------------------------------------------------------
B|---9-------------8------------7----------5----------------------------------------------------
G|---9-------------7------------7----------6---------------------------------------------------- 2X
D|---9-------------9------------7----------7----------------------------------------------------
A|----------------------------------------------------------------------------------------------
E|----------------------------------------------------------------------------------------------

E                      G
Once again, you let us fall
           D                       A
Still you ease our minds and are sure to stall
E                   G                 D  A
In the end, everything's gonna be alright

Riff 2:
But they won't
Now I realize, these are hard times
We can't fight them on our own
But I won't lie, I'm not satisfied
Who will save tomorrow?

Refrão:

When your heroes, turn to the enemy

And there's nothing left to hold

When your heroes, give only apologies

I won't deny it leaves me cold

E          B
Hope we're still alive
G
Still alive
A         E
Oh, oh, oh
         B
We're still alive
G                    A
Still alive in the end

(Solo) Gb  Ab  A  B  (4X)    
      (D  A  E  B     D   A)

Riff 2:
Now I know
Now I realize, these are hard times
We can't face them on our own
But I won't lie, I'm not satisfied
Who will save tomorrow?

Refrão 2x:

When your heroes, turn to the enemy

And there's nothing left to hold

When your heroes, give only apologies

I won't deny it leaves me cold

E               B
Hope we're still alive
G
Still alive
A         E
Oh, oh, oh
         B
We're still alive
G                    A
Still alive in the end
Composição de M. Kennedy / S. Hudson
Colaboração e revisão:
  • Victor Pedrosa
  • illgner meira
  • Gleisson Mohr
11.128 exibições
    • ½ Tom
    • A
    • Bb
    • B
    • C
    • Db
    • D
    • Eb
    • E
    • F
    • F#
    • G
    • Ab
  • Adicionar à lista

    0 comentários

    Ver todos os comentários
    00:00 / 00:00
    outros vídeos desta música
    repetir qualidade Automático
    Outros vídeos desta música
    00:00 / 00:00
    Automático

    Cifra Club Pro

    Aproveite o Cifra Club com benefícios exclusivos e sem anúncios
    Cifra Club Pro
    Aproveite o Cifra Club com benefícios exclusivos e sem anúncios
    OK