Cifra Club

Aprenda

Paradise City

Slash

Cifra: Principal (violão e guitarra)
tom: B (forma dos acordes no tom de C) Afinação: Eb Ab Db Gb Bb Eb
(afine 1/2 abaixo para tocar de acordo com a musica ou use sua afinação)

(faça 4 vezes esse dedilhado)

        G                   C                    Fadd9      C         G
|-3-3-----3-----3-----3---3-----3-----3-----3---1----3---3-----3------|
|-0--0-----0-----O--0-1--1-1-----1-----1--1-1--1-1-1-1--1-1--1-0------|
|-0---0-----0-----0---0-----0-----0-----0---2-----2--0-----0---0------|
|-0-------------------2---------------------3-3------2---------0------|
|-2-------------------3-3-------------------0--------3-3-------3------|
|-3-------------------0---------------------0--------0---------2------|

(rhy. fig. 2)

 *                   p.m.--|                     p.m.---|
|-------------------------|----------------------------|
|-------------------------|----------------------------|
|---------------------5-5-|--------5-------------------|
|5--------------------5-5-|-3------5---5---------------|
|5--------------------3-3-|-3------3---5---------------|
|3------------------------|-1----------3---------------|

(riff b)
|--------------------------------------------|---------------------|
|----------------------15--------------------|---------------------|
|-------12-12--------------14~~-14~~--12-----|-----------%---------|
|-12h14---------14-12---------------------14-|---------------------|
|--------------------------------------------|---------------------|
|--------------------------------------------|---------------------|

(riff b-1)
|-----------------------------------------------------------------|
|-13bf-----13bf-----11~-----------------11~~----------------------|
|------------------------14---12----------------------------------|
|----------------------------------14-----------------------------|
|-----------------------------------------------------------------|
|-----------------------------------------------------------------|

(riff b-2)
|------------------------------------------------------------------|
|-13~~-----13~~----11~~-----------------11~~-----------------------|
|-----------------------14---12---------------12-------------------|
|--------------------------------14--------------------------------|
|------------------------------------------------------------------|
|--------------------------------------------|---------------------|

(riff c)
p.m.-----------------------------------|
  /\/        /\/
|--------------------------------------------|
|--------------------------------------------|
|---------------------------------------3----|
|------------------------------------5--3----|
|-5---3---4--5---3---4--5---3--5--3--5--1----|
|-3---1---2--3---1---2--3---1--3--1--3-------|

p.m.-----------------------------------|
  /\/\/\     /\/\/\
|--------------------------------------------|
|--------------------------------------------|
|------------------------------------5--3----|
|------------------------------------3--3----|
|-5---3---4--5---3---4--5---3--5--3--3--1----|
|-3---1---2--3---1---2--3---1--3--1----------|

p.m.-----------------------------------|
  /\/        /\/
|--------------------------------------------|
|--------------------------------------------|
|---------------------------------------3----|
|------------------------------------5--3----|
|-5---3---4--5---3---4--5---3--5--3--5--1----|
|-3---1---2--3---1---2--3---1--3--1--3-------|

p.m.----------------------------------|
/\/       \/\
|--------------------------------------------|
|--------------------------------------------|
|-----------------------------------5---3----|
|--------------------------5---3----3---3----|
|-5---3---4--5----3---4----5---3----3---1----|
|-3---1---2--3----1---2----3---1-------------|

(rhy. fig. 3 - w/ partial 1st verse for timing for easy)

p.m.---------------------------------------|
  /\/
|-----------------------------------------------------|
|--------------------------------------------------3--|
|--------------------------------------------------3--|
|--------------------------------------------------3--|
|--------------------------------------------------1--|
|-3----1---2---3---3---1---2---3---1---3---1---3------|

 1.  just...                                     i'm...

      p.m.-----------------------------|
  /\/
|---------------------------------------------------|
|----------------------------------------5----3-----|
|----------------------------------------5----3-----|
|----------------------------------------5----3-----|
|----------------------------------------3----1-----|
|-3----1---2--3--3--1--2--3--1--3---1---------------|

 hard...                               i'm  your...
  p.m.----------------------------------------|
  /\/
|-----------------------------------------------------|
|--------------------------------------------------3--|
|--------------------------------------------------3--|
|--------------------------------------------------3--|
|--------------------------------------------------1--|
|-3----1---2---3---3---1---2---3---1---3---1---3------|

Charity...                                 eat.

            p.m.-----|
/\/\/\/\
|------------------------------------|--------------|
|--------------------------3---------|--------5-----|
|--------------------------3---------|--------5-----|
|--------------------------3---------|--------5-----|
|--------------------------1---------|--------3-----|
|-3---------1---2---3----------------|--------------|
   pay   you....          another...             time.

|-----------------------------------------------------|
|-----------------------------------------------------|
|-----------------------------------------------------|
|-----------------------------------------------------|
|--3bh--------1---3---1-------------------------------|
|-------------------------3---3-----------------------|
Take...       the...       line.

(rhy. fig. 1) x 2

(chorus w/rhy. fig. 1) x 2
Take me down to the paradise city,
Where the grass is green and the girls are pretty.
Oh won't you please take me home.

(rhy. fig. 2) x 2

[(riff B then riff b-1) w/Rhy. Fig. 2]
[(riff B then riff b-2) w/Rhy. Fig. 2]

(riff C)

(verse 1 w/rhy. fig. 3)
Just an urchin livin' under the street.
I'm a ... hard case that's tough to beat.
I'm your charity case, so buy me something to eat.
I'll pay you at another time.

(riff C)
(verse 2 w/rhy. fig. 3)
(chorus w/rhy. fig. 1) x 2

(solo)

(2 x - rápido)

|------10------------10------8----------8--|
|------------------------------------------|
|10-11----12--10-11------8-9----10--8-9----|
|------------------------------------------|
|------------------------------------------|
|------------------------------------------|


(2 x - rápido)

|------10------------10----------10-----------10-----------10-----8---------8---------8---------8-----|
|-----------------------------------------------------------------------------------------------------|
|10-11----12--10-11----12--10-11----12--10-11----12--10-11----8-9---10--8-9---10--8-9---10--8-9-------|        
|-----------------------------------------------------------------------------------------------------|
|-----------------------------------------------------------------------------------------------------|
|-----------------------------------------------------------------------------------------------------|

|----6---------6--|
|-----------------|
|6-7----8--6-7----|
|-----------------|
|-----------------|
|-----------------|


 so...  far..................     away................

Then comes this....

(after which slide each note on the g string (3rd from the bottom)
Down two frets (i.e.  10--8h9----8h9) for a while and then move it
Back up two frets and so on)
Composição de Guns N' Roses
Colaboração e revisão:
  • Bernardo
  • Gustavo Lopes
37.123 exibições
    • ½ Tom
    • A
    • Bb
    • B
    • C
    • Db
    • D
    • Eb
    • E
    • F
    • F#
    • G
    • Ab
  • Adicionar à lista

    0 comentários

    Ver todos os comentários
    00:00 / 00:00
    outros vídeos desta música
    repetir qualidade Automático
    Outros vídeos desta música
    00:00 / 00:00
    Automático

    Cifra Club Pro

    Aproveite o Cifra Club com benefícios exclusivos e sem anúncios
    Cifra Club Pro
    Aproveite o Cifra Club com benefícios exclusivos e sem anúncios
    OK