Cifra Club

Aprenda

Saint Is a Sinner Too

Slash

Cifra: Principal (violão e guitarra)
tom: C
(parte 1)
      Am                    Am
E|------0-0-0---0-0-0---0-0-0---0-0-0------------|
B|------------1---------------1------------------|
G|--------------------2---------------2----------|
D|-----------------------------------------------|
A|---0-------------------------------------------|
E|-----------------------------------------------|

(parte 2)
      Am                     Am        F
E|-----0-0-0--0000-0000---0000-0000-0000-0000-0000-0000-|
B|-----1111-1111-1111-1111---1111-1111-1111-1111-1111-1111-|
G|---------2----2----2-------------------------------2-----|
D|------------------------------------3----2----1----------|
A|---0----------------------0----3-------------------------|
E|---------------------------------------------------------|

(parte 3)
      D                     D
E|----2222-2222-2222-2222---2222-2222-2222-2222-|
B|----1111-1111-1111-1111---1111-1111-1111-1111-|
G|--------2----2----2-----------2----2----2-----|
D|---0---------------------0--------------------|
A|----------------------------------------------|
E|----------------------------------------------|
      Am                    Am
E|-----0000-0000-0000-0000---0000-0000-0000-0000-|
B|-----1111-1111-1111-1111---1111-1111-1111-1111-|
G|---------2----2----2-----------2----2----2-----|
D|-----------------------------------------------|
A|---0---------------------0---------------------|
E|-----------------------------------------------|

(parte 4)
      D                     D
E|----2222-2222-2222-2222---2222-2222-2222-2222-|
B|----1111-1111-1111-1111---1111-1111-1111-1111-|
G|--------2----2----2-----------2----2----2-----|
D|---0---------------------0--------------------|
A|----------------------------------------------|
E|----------------------------------------------|
      Dsus4                 D         Dm
E|----3333-3333-3333-3333---2222-2222-1111-1111-|
B|----1111-1111-1111-1111---1111-1111-1111-1111-|
G|--------2----2----2-----------2----2----2-----|
D|---0---------------------0--------------------|
A|----------------------------------------------|
E|----------------------------------------------|

(intro)

Am
(parte 1 - 2x)
Hold my hands down

Am              F  F/E  F/D#
(parte 2)
So they don't reach for you

D
(parte 3)
In case you don't know
Am
A saint is a sinner too

(riff)
E|--------------|
B|---6--5--4--5-|
G|--------------|
D|--------------|
A|--------------|
E|--------------|

Am
(parte 2)
Blind my eyes
  F  F/E F/D#
So I can't see

D
(parte 4)
What coming for you
                Dsus4   D   Dm
Is coming for me

(riff)
E|--0--0-0--0---0-0-0--0-0-0-0-0-0-0---0-0-----|
B|--1--0-1--1/5-5-3-0--0-3-5-5-3-1-1h3-1-1h3---|
G|--0----------------------------------------2-|
D|---------------------------------------------|
A|---------------------------------------------|
E|---------------------------------------------|

ou

(riff)
E|--------0-0--0---0-0-0--0-0-0-0-0-0-0---0-0----|
B|----1---0-1--1/5-5-3-0--0-3-5-5-3-1-1h3-1-1h3--|
G|-0h2-----------------------------------------2-|
D|-----------------------------------------------|
A|-----------------------------------------------|
E|-----------------------------------------------|

(solo)

--------------------------------------------|
-13-12-13------------13-12-15-13------------|
--------------------------------------------|
-----------14-13-14-------------------------|
--------------------------------------------|
--------------------------------------------|

--------------------------------------------|
-12-13--------------------------------------|
-------14-----------------------------------|
---------14-12----------------12-14---------|
---------------15-14--12---15---------------|
--------------------------------------------|

---------------------------------------------|
---------------------------------------------|
------------------------------------------12-|
-14-15-14----14-15-14-12-15---14-15-14-12----|
---------------------------------------------|
---------------------------------------------|

--------------------------------------------|
------------------------13----13-15---------|
-------------14---12-14----14---------------|
-14-15-14-12--------------------------------|
--------------------------------------------|
--------------------------------------------|

--------------------------------------------|
-15-13-17-15---15-13-15---13-12-13-12-------|
--------------------------------------------|
--------------------------------------------|
--------------------------------------------|
--------------------------------------------|

--------------------------------------------|
-10-12-10-----------------------------------|
-----------12-------------------------------|
--------------------------------------------|
--------------------------------------------|
--------------------------------------------|
Composição de Rocco Deluca / S. Hudson
Colaboração e revisão:
  • Willian Brito
  • Danilo Denadai
  • Lizandra
6.275 exibições
    • ½ Tom
    • A
    • Bb
    • B
    • C
    • Db
    • D
    • Eb
    • E
    • F
    • F#
    • G
    • Ab
  • Adicionar à lista

    0 comentários

    Ver todos os comentários

    Conseguiu tocar?

    2 Tocaram 0 Ainda não

    Grave um vídeo tocando Saint Is a Sinner Too e nos envie!

    00:00 / 00:00
    outros vídeos desta música
    repetir qualidade Automático
    Outros vídeos desta música
    00:00 / 00:00
    Automático

    Cifra Club Pro

    Aproveite o Cifra Club com benefícios exclusivos e sem anúncios
    Cifra Club Pro
    Aproveite o Cifra Club com benefícios exclusivos e sem anúncios
    OK