Cifra Club

Bitchslap

Slipknot

Tab de baixo: Principal
exibições 384
(intro / verso)
G|------------------------------|
D|------------------------------|
A|------------------------------|
D|-0000-1-0000-1-00000-1-0000-2-|

G|----------------------------------5-6-5-----------------------------------|
D|-9-8-7-6-5-5-6-7-8-9--9-8-7-6-5-6--------9--9-8-7-6-5-5-6-7-8-9-12-15-17~-|
A|--------------------------------------------------------------------------|
D|--------------------------------------------------------------------------|

G|------------------------------|
D|------------------------------|
A|------------------------------|
D|-0000-1-0000-1-00000-1-0000-2-|

G|----------------------------------5-6-5-----------------------------------|
D|-9-8-7-6-5-5-6-7-8-9--9-8-7-6-5-6--------9--9-8-7-6-5-5-6-7-8-9-12-15-17~-|
A|--------------------------------------------------------------------------|
D|--------------------------------------------------------------------------|

G|----------------------------|
D|----------------------------|
A|----------------------------|
D|-00000-333333-222222-11111--|

G|------------------------|-----------8----|
D|----9-----9----10-----10|-x-10-9h10---10-|
A|------------------------|----------------|
D|-7----5/7---8-----6/8---|----------------|

G|-------------|
D|-------------|
A|-------------|
D|-0-2-0-1-0-1-|

G|-----------3--------------------------5-3-------------|
D|-------3h5---5p3h5---------------3h5------5p3h5-------|
A|-----3-------------3h5--------3-----------------3h5---|
D|-3h5--------------------3h5---------------------------|

G|-----------3---------------------------------|
D|-------3h5---5p3h5----------3-x--3h5p3-------|
A|-----3-------------3h5-----------------------|
D|-3h5-------------------3h5-------------5-----|

G|-----------------------------|
D|-----------------------------|
A|-----------------------------|
D|-0000-1-0000-1-0000-1-0000-2-|

(final)
G|----------------------------|
D|----------------------------|
A|----------------------------|
D|-00000-333333-222222-11111--|
Colaboração e revisão:
  • Lucas Lago

0 comentários

    mostrar mais comentários

    Conseguiu tocar?

    0tocaram0ainda não

    Grave um vídeo tocando Bitchslap e mande pra gente!

    00:00 / 00:00
    outros vídeos desta música
    repetirqualidadeautomática
    Outro vídeos desta música
      00:00 / 00:00
      automática
      OK