Cifra Club

Disasterpiece

Slipknot

Cifra: Versão 2 (violão e guitarra)
tom: E
SLIPKNOT
DISASTERPIECE
IOWA
(ESSA SIM É A VERSÃO CERTA!)

*=VIBRATO
/=SLIDE
h=HAMMER-ON/PULL-OFF

RIFF 1:
MICK
C#|-----------------------|
G#|-----------------------|
 E|-----------------------|
 B|-------------13--------|  
F#|-----------------------|
 B|-121213h121212—121213h12-|
JAMES
C#|---------------|
G#|---------------|
 E|---------------|
 B|--------7*-----|  
F#|---------------|
 B|-/001h000—001h0-|
RIFF 2:
JAMES
C#|-------------------|
G#|-------------------|
 E|-------------------|
 B|-------7*----------|  
F#|-------------------|
 B|-001000---01203020-|
RIFF 3:
AMBOS
C#|----------------------|
G#|----------------------|
 E|----------------------|
 B|----------------------|  
F#|----0----1----021020--|
 B|-00-0-00-1-00-021020--|
RIFF 4:
MICK
C#|---------|
G#|---------|
 E|---------|
 B|---------|  
F#|-0001110-|
 B|-0001110-|
JAMES
C#|---------------------------|
G#|---------------------------|
 E|---------------------------|
 B|---------------------------|  
F#|-0001110-------------------|
 B|-0001110---3h002h05/4------|
              |___3x___|
RIFF 5:
AMBOS
C#|----------------------|
G#|----------------------|
 E|----------------------|
 B|----------------------|  
F#|----------------------|
 B|--0001110—3h002h05/4--|




RIFF 6:
AMBOS
C#|------------------|
G#|------------------|
 E|------------------|
 B|--------------------|  
F#|-0001111-3h002h05/4-|
 B|-0001111—3h002h05/4-|
REFRÃO:
MICK
C#|------------------------------------------------------|
G#|------------------------------------------------------|
 E|------------------------------------------------------|
 B|------------------------------------------------------|  
F#|-0-1-0------------------------------------------------|
 B|-0-1-0--8888-8888-8888-8888/1111-1111-1111-1111-0-1-0-|

C#|-----------------------------------------|
G#|-----------------------------------------|
 E|-----------------------------------------|
 B|-----------------------------------------| 
F#|-----------------------------------------|
 B|-8888-8888-8888-8888/1111-1111-1111-1111-|
JAMES
C#|-----------------------------------------------------|
G#|-----------------------------------------------------|
 E|-------3333-3333-33333-3333-4444-4444-4444-4444------|
 B|-----------------------------------------------0-1-0-|  
F#|-0-1-0-----------------------------------------------|
 B|-0-1-0-----------------------------------------------|

C#|-----------------------------------------|
G#|-----------------------------------------|
 E|-3333-3333-3333-3333-4444-4444-4444-4444-|
 B|-----------------------------------------|  
F#|-----------------------------------------|
 B|-----------------------------------------|
RIFF 7:
MICK
C#|--------------------|
G#|--------------------|
 E|--------------------|
 B|--------------------|  
F#|-0001110-2h003h01h0-|
 B|-0001110-2h003h01h0-|
JAMES:
C#|--------------------------|
G#|--7/55/7/555-7/55/8/5/7/5-|
 E|--------------------------|
 B|--------------------------|  
F#|--------------------------|
 B|--------------------------|
RIFF 8:
AMBOS
C#|----------------------|
G#|----------------------|
 E|----------------------|
 B|----------------------|  
F#|-1112221-4h004h04h0---|
 B|-1112221-4h004h04h0---|
RIFF 9:
MICK:
C#|----------------------|
G#|----------------------|
 E|----------------------|
 B|----------------------|  
F#|----------------------|
 B|-0-x1-x0-x1-x0------------|
JAMES
( REPETE O RIFF 7)


RIFF 10:
AMBOS
C#|---------------------|
G#|---------------------|
 E|---------------------|
 B|---------------------|  
F#|---0---1---2h32h03h0-|
 B|-000-111-002h32h03h0-|
( REPETE O REFRÃO )
RIFF 11:
MICK
C#|---|
G#|---|
 E|---|
 B|---|  
F#|-0-|
 B|-0-|
JAMES:
C#|-----------|
G#|-5------53-|
 E|-2---------|
 B|-0---------|  
F#|-0---------|
 B|-0---------|
RIFF 12:
MICK(com pitch - 1 oitava acima)
C#|-7/5-|
G#|-----|
 E|-----|
 B|-----|  
F#|-----|
 B|-----|
JAMES
( PM )
C#|-------------------|
G#|-------------------|
 E|-------------------|
 B|-------------------|  
F#|-------------------|
 B|-0341/666688889999-|
SAMPLER
C#|-----|
G#|-----|
 E|-8/7-|
 B|-x/x-|  
F#|-6/5-|
 B|-----|
RIFF 13:
MICK E JAMES
C#|---------|
G#|---------|
 E|---------|
 B|---------|  
F#|-0341689-|
 B|-0341689-|
SAMPLER
JAMES:
C#|-24/22-|
G#|-24/22-|
 E|-------|
 B|-------|  
F#|-------|
 B|-------|

RIFF 14:
C#|----------|
G#|----------|
 E|----------|
 B|----------|  
F#|-90341689-|
 B|-90341689-|
RIFF 15:
MICK E JAMES(abafando)
C#|-------------------|
G#|-------------------|
 E|-------------------|
 B|-------------------|  
F#|-------------------|
 B|-00341666688889999-|
SAMPLER:
C#|-19/17-|
G#|-------|
 E|-------|
 B|-------|  
F#|-------|
 B|-------|
RIFF 16:
MICK
C#|---|
G#|---|
 E|---|
 B|---|  
F#|-0-|
 B|-0-|
JAMES
C#|-------------------------------|
G#|--7/55/7/555-7/55/8/5/7/5--/10-|
 E|-------------------------------|
 B|-------------------------------|  
F#|-------------------------------|
 B|-------------------------------|
     |_______3x____________|
RIFF 17:
MICK
( PM )
C#|---------|
G#|---------|
 E|---------|
 B|---------|  
F#|---------|
 B|-0003332-|
RIFF 17:
MICK
( PM )
C#|-----------------|
G#|-----------------|
 E|-----------------|
 B|-----------------|  
F#|-----------------|
 B|-0003332-5553366-|








RIFF 18:
MICK
( PM )
C#|------------------|
G#|------------------|
 E|------------------|
 B|------------------|  
F#|------------------|
 B|-0003332225553366-|
RIFF 19:
MICK
C#|-------------------------|
G#|-------------------------|
 E|-------------------------|
 B|-------------------------|  
F#|-------------------------|
 B|-0003332225553366—0-0/12/|
    |_____3X________|
RIFF 20:
JAMES(pitch - 1 oitava acima)
C#|-1213121312131213121312131213121312131213121312131213121312131213-|
G#|------------------------------------------------------------------|
 E|------------------------------------------------------------------|
 B|------------------------------------------------------------------|  
F#|------------------------------------------------------------------|
 B|------------------------------------------------------------------|
RIFF 21:
MICK E JAMES(abafando)
C#|-------------------|
G#|-------------------|
 E|-------------------|
 B|-------------------|  
F#|-------------------|
 B|-00341666688889999-|
SAMPLER:
C#|-19/17-|
G#|-------|
 E|-------|
 B|-------|  
F#|-------|
 B|-------|
RIFF 22:
(O JAMES ANTES FAZ UM SLIDE PARTINDO DA CASA 12)
C#|------------------|
G#|------------------|
 E|------------------|
 B|------------------|  
F#|-00341689-00341--9|
 B|-00341689-00341689|
    |__7X__|      PM
Composição de Slipknot
Colaboração e revisão:
  • Állan Pinheiro
2.494 exibições
    • ½ Tom
    • A
    • Bb
    • B
    • C
    • Db
    • D
    • Eb
    • E
    • F
    • F#
    • G
    • Ab
  • Adicionar à lista

    0 comentários

    Ver todos os comentários

    Conseguiu tocar?

    0 Tocaram 0 Ainda não

    Grave um vídeo tocando Disasterpiece e nos envie!

    00:00 / 00:00
    Outros vídeos desta música
    Repetir Qualidade Automático
    Outros vídeos desta música
    00:00 / 00:00
    Automático

    Cifra Club Pro

    Aproveite o Cifra Club com benefícios exclusivos e sem anúncios
    Cifra Club Pro
    Aproveite o Cifra Club com benefícios exclusivos e sem anúncios
    OK