Cifra Club

Eyeless

Slipknot

Tab de baixo: Principal
exibições 5.407
Tuning B-F#-B-E-G#

intro
F#|-------1-----------------|
 B|-0-0-1---0-1-0-0-1-0-0-1-|

chorus
F#|-------------------------|
 B|-0-0-1-3-0-1-0-0-1-0-0-1-|

verse
F#|---------------|
 B|-0-0-1-3-0-0-1-|

fill
F#|------------------------|
 B|-99-8-99-7-99-8-99-8-99-|

break
F#|---------------------|
 B|-0-0-0-6/0-0-1-0-0-1-|

break2
F#|---------|
 B|-0-6-3-4-|



_______________________________________________________
Contribuição: Victor Rene Mazepas de Oliveira(vicrene@uol.com.br)
Composição: Slipknot

0 comentários

    mostrar mais comentários

    Conseguiu tocar?

    2tocaram0ainda não

    Grave um vídeo tocando Eyeless e mande pra gente!

    00:00 / 00:00
    outros vídeos desta música
    repetirqualidadeautomática
    Outro vídeos desta música
      00:00 / 00:00
      automática
      OK