Cifra Club

Gehenna

Slipknot

Tab de baixo: Principal
exibições 772
(intro 4x)                           (00:20)
G|------------------------------------------|
D|------------------------------------------|
A|--7--6-6-6----2--3-3-3--------------------|
E|------------------------------8-8-7-------|

                               (00:40)
G|-----------------||-----------------|
D|-----------------||-----------------|(2x)
A|-----------------||-----------------|
E|--------0--------||--------0--------|

(verso 4x)                             (00:58)
G|--------------------------------------------|
D|--------------------------------------------|
A|--------------------------------------------|
E|--5/10----8--0-0---8—7--0-0----7--5---------|

(intro 2x)

(pré-refrão)                                 (02:16)
G|--------------------------------------------------|
D|--------------------------------------------------|
A|--5-—5-—5-—5--5--5--5--5----8--8--8--8------------|(2x)
E|----------------------------------------7-7-7-7-7-|

(refrão)                                        (02:27)
G|-----------------------------------------------------|
D|-----------------------------------------------------|
A|-----------8/5---------------------------------------|
E|--5-5-5-5—-------3-3-3---1-1-1---7-7-7-7-7-7-7-7-----|

G|-------------------------------------------------|
D|-------------------------------------------------|
A|--5--5--5--------8--8--8--7----------------------|(4x)
E|---------------7/--------------------------------|

(verso 2x)

(solo)                            (03:14)
G|---------------------------------------|
D|---------------------------------------|
A|-----------------------8-8-8-8-8-8-8-8-|
E|--5-5-5-5-5-5-5-5—---------------------|

G|------------------------------------------|
D|------------------------------------------|
A|--------------------------------8-8-8---7-|(4x)
E|--7-7-7-7-7-7----10--10--10---7/----------|

(refrão)                           (04:32)
G|---------------------------------------|
D|---------------------------------------|
A|-----------------------8-8-8-8-8-8-8-8-|
E|--5-5-5-5-5-5-5-5—---------------------|

G|-------------------------------------------------|
D|-------------------------------------------------|
A|---------------------------------8--8--8---7-----| (4x)
E|--7-7-7-7-7-7----10--10--10---7/-----------------|

                                  (05:11)
G|-----------------—---------------------|
D|---------------------------------------|
A|-----------------------8-8-8-8-8-8-8-8-|
E|--5-5-5-5-5-5-5-5—---------------------|
                                         (4x)
G|-------------------------------------------|
D|-------------------------------------------|
A|--------------------------------8--8--8—7--|
E|--7-7-7-7-7-7----10--10--10---7/-----------|

(refrão 4x)

(final 8x)                                  (06:09)              
G|-------------------------------------------------|
D|-------------------------------------------------|
A|-------------------------------------------------|
E|--0-5-0-5-0-----0--------------------------------|
Composição: SlipknotColaboração e revisão:
  • Lucas Lago

0 comentários

    mostrar mais comentários

    Conseguiu tocar?

    3tocaram0ainda não

    Grave um vídeo tocando Gehenna e mande pra gente!

    00:00 / 00:00
    outros vídeos desta música
    repetirqualidadeautomática
    Outro vídeos desta música
      00:00 / 00:00
      automática
      OK