Cifra Club

The Devil In I

Slipknot

Tab de baixo: Principal
exibições 626
Intro: 
(00:13):
D|-------------------------------------------------------------------------|
A|-------------------------------------------------------------------------|
E|---------------------------------------------------5---------------------|
A|-100-0-0-100-0-0-100-0-0-100-100-100-0-0-100-0-0-6---6p0-1p0-1p0---------|

D|-------------------------------------------------------------------------|
A|-------------------------------------------------------------------------|
E|-------------------------------------------------------------------------|
A|-100-0-0-100-0-0-100-0-0-100-100-100-0-0-100-0-0-131p0-131p0-------------|


D|-------------------------------------------------------------------------|
A|-------------------------------------------------------------------------|
E|---------------------------------------------------5---------------------|
A|-100-0-0-100-0-0-100-0-0-100-100-100-0-0-100-0-0-6---6p0-1p0-1p0---------|

D|-------------------------------------------------------------------------|
A|-------------------------------------------------------------------------|
E|-------------------------------------------------------------------------|
A|-100-0-0-100-0-0-100-0-0-100-100-100-0-0-100-0-0-131p0-131p0-------------|

Refrão:
D|-------------------------------------------------------------------------|
A|-------------------------------------------------------------------------|
E|-------------------------------------------------------------------------|
A|-0~--77776666-03~--0~--77776666--03~-------------------------------------|

D|-------------------------------------------------------------------------|
A|-------------------------------------------------------------------------|
E|-55555555777777778888888833333333----------------------------------------|
A|-------------------------------------------------------------------------|

D|-------------------------------------------------------------------------|
A|-------------------------------------------------------------------------|
E|-7~-6~-------------------------------------------------------------------|
A|-------03~--0~--77776666-03~--0~--77776666-03~---------------------------|

D|-------------------------------------------------------------------------|
A|-------------------------------------------------------------------------|
E|-55555555777777778888888833333333----------------------------------------|
A|-------------------------------------------------------------------------|

D|-------------------------------------------------------------------------|
A|-------------------------------------------------------------------------|
E|-7~-6~-------------------------------------------------------------------|
A|-------0001~-------------------------------------------------------------|

Verso:
D|-------------------------------------------------------------------------|
A|-------------------------------------------------------------------------|
E|---5-3----7-5----5-3-----------------------------------------------------|
A|-0------0------0-----5--5--1---------------------------------------------| 

Refrão:
D|-------------------------------------------------------------------------|
A|-------------------------------------------------------------------------|
E|-------------------------------------------------------------------------|
A|-0~--77776666-03~--0~--77776666--03~-------------------------------------|

D|-------------------------------------------------------------------------|
A|-------------------------------------------------------------------------|
E|-55555555777777778888888833333333----------------------------------------|
A|-------------------------------------------------------------------------|

D|-------------------------------------------------------------------------|
A|-------------------------------------------------------------------------|
E|-7~-6~-------------------------------------------------------------------|
A|-------03~--0~--77776666-03~--0~--77776666-03~---------------------------|

D|-------------------------------------------------------------------------|
A|-------------------------------------------------------------------------|
E|-55555555777777778888888833333333----------------------------------------|
A|-------------------------------------------------------------------------|

D|-------------------------------------------------------------------------|
A|-------------------------------------------------------------------------|
E|-7~-6~-------------------------------------------------------------------|
A|-------0001~-------------------------------------------------------------|

Ponte:
D|-------------------------------------------------------------------------|
A|-------------------------------------------------------------------------|
E|--------------------------------5----------------------------------------|
A|-0000-7777-6666-03~-0000-7777-0---6-6p0-1p0-1p0--------------------------|

D|-------------------------------------------------------------------------|
A|-------------------------------------------------------------------------|
E|-------------------------------------------------------------------------|
A|-0000-7777-6666-03~-0000-7777-1310-01~-----------------------------------|

Verso:
D|-------------------------------------------------------------------------|
A|-------------------------------------------------------------------------|
E|---5-3----7-5----5-3-----------------------------------------------------|
A|-0------0------0-----5--5--1---------------------------------------------|

Refrão:
D|-------------------------------------------------------------------------|
A|-------------------------------------------------------------------------|
E|-------------------------------------------------------------------------|
A|-0~--77776666-03~--0~--77776666--03~-------------------------------------|

D|-------------------------------------------------------------------------|
A|-------------------------------------------------------------------------|
E|-55555555777777778888888833333333----------------------------------------|
A|-------------------------------------------------------------------------|

D|-------------------------------------------------------------------------|
A|-------------------------------------------------------------------------|
E|-7~-6~-------------------------------------------------------------------|
A|-------03~--0~--77776666-03~--0~--77776666-03~---------------------------|

D|-------------------------------------------------------------------------|
A|-------------------------------------------------------------------------|
E|-55555555777777778888888833333333----------------------------------------|
A|-------------------------------------------------------------------------|

D|-------------------------------------------------------------------------|
A|-------------------------------------------------------------------------|
E|-7~-6~-------------------------------------------------------------------|
A|-------0001~-------------------------------------------------------------|

Ponte:
D|-------------------------------------------------------------------------|
A|-------------------------------------------------------------------------|
E|---------------------------------------------------5---------------------|
A|-100-0-0-100-0-0-100-0-0-100-100-100-0-0-100-0-0-6---6p0-1p0-1p0---------|

D|-------------------------------------------------------------------------|
A|-------------------------------------------------------------------------|
E|-------------------------------------------------------------------------|
A|-100-0-0-100-0-0-100-0-0-100-100-100-0-0-100-0-0-131p0-131p0-------------|

D|-------------------------------------------------------------------------|
A|-------------------------------------------------------------------------|
E|---------------------------------------------------5---------------------|
A|-100-0-0-100-0-0-100-0-0-100-100-100-0-0-100-0-0-6---6p0-1p0-1p0---------|

D|-------------------------------------------------------------------------|
A|-------------------------------------------------------------------------|
E|-------------------------------------------------------------------------|
A|-100-0-0-100-0-0-100-0-0-100-100-100-0-0-100-0-0-131p0-131p0-------------|

Interlúdio (solo):
D|-------------------------------------------------------------------------|
A|-------------------------------------------------------------------------|
E|----------55555555-33333333----------------------------------------------|
A|-00000000----------------------------------------------------------------|

D|-------------------------------------------------------------------------|
A|-------------------------------------------------------------------------|
E|----------77777777-55555555----------------------------------------------|
A|-00000000----------------------------------------------------------------|

D|-------------------------------------------------------------------------|
A|-------------------------------------------------------------------------|
E|----------55555555-33333333----------------------------------------------|
A|-00000000----------------------------------------------------------------|

D|-------------------------------------------------------------------------|
A|-------------------------------------------------------------------------|
E|-------------------------------------------------------------------------|
A|-77777777-55555555-00000000----------------------------------------------|

D|-------------------------------------------------------------------------|
A|-------------------------------------------------------------------------|
E|----------55555555-33333333----------------------------------------------|
A|-00000000----------------------------------------------------------------|

D|-------------------------------------------------------------------------|
A|-------------------------------------------------------------------------|
E|----------77777777-55555555----------------------------------------------|
A|-00000000----------------------------------------------------------------|

D|-------------------------------------------------------------------------|
A|-------------------------------------------------------------------------|
E|----------55555555-33333333----------------------------------------------|
A|-00000000----------------------------------------------------------------|

D|-------------------------------------------------------------------------|
A|-------------------------------------------------------------------------|
E|-------------------------------------------------------------------------|
A|-77777777-55555555-00000000----------------------------------------------|

Refrão:
D|------------------------------------------------------------------------|
A|------------------------------------------------------------------------|
E|------------------------------------------------------------------------|
A|-0~--77776666-03~--0~--77776666--03~------------------------------------|

D|------------------------------------------------------------------------|
A|------------------------------------------------------------------------|
E|-55555555777777778888888833333333---------------------------------------|
A|------------------------------------------------------------------------|

D|------------------------------------------------------------------------|
A|------------------------------------------------------------------------|
E|-7~-6~------------------------------------------------------------------|
A|-------03~--0~--77776666-03~--0~--77776666-03~--------------------------|

D|------------------------------------------------------------------------|
A|------------------------------------------------------------------------|
E|-55555555777777778888888833333333---------------------------------------|
A|------------------------------------------------------------------------|

D|------------------------------------------------------------------------|
A|------------------------------------------------------------------------|
E|-7~-6~------------------------------------------------------------------|
A|-------0001~------------------------------------------------------------|

Ponte:
D|------------------------------------------------------------------------|
A|------------------------------------------------------------------------|
E|--------------------------------5---------------------------------------|
A|-0000-7777-6666-03~-0000-7777-0---6-6p0-1p0-1p0-------------------------|

D|------------------------------------------------------------------------|
A|------------------------------------------------------------------------|
E|------------------------------------------------------------------------|
A|-0000-7777-6666-03~-0000-7777-1310-01~----------------------------------|

Final:
D|------------------------------------------------------------------------|
A|------------------------------------------------------------------------|
E|---5-3----7-5----5-3----------------------------------------------------|
A|-0------0------0-----5--5--1--------------------------------------------|
Composição: Corey TaylorColaboração e revisão:
  • ROCKER COSMO

0 comentários

    mostrar mais comentários

    Conseguiu tocar?

    1tocaram0ainda não

    Grave um vídeo tocando The Devil In I e mande pra gente!

    00:00 / 00:00
    outros vídeos desta música
    repetirqualidadeautomática
    Outro vídeos desta música
      00:00 / 00:00
      automática
      OK