Enviar cifraEntrar

Vermilion Pt.2

Slipknot

Cifra: Principal
exibições 743.862
Tom: D
Intro 2x: G#5  G#5(9)  G#6-  B5


E|---4--4--4--4-4-4-4-4-4-4-7-7-7-7-7-7-7-7-7-7-7-7---------------|
B|---4--4--4--4-4-4-4-4-4-4-7-7-7-7-7-7-7-7-7-7-7-7---------------|
G|---4--4--4--4-4-4-4-4-4-4-7-7-7-7-7-7-7-7-7-7-7-7---------------|   
D|---6--8--6--6-6-6-6-6-6-6-9-9-9-9-9-9-9-8-8-8-8-8---------------|
A|---6--6--7--6-6-6-6-6-6-6-9-9-9-9-9-9-9-9-9-9-9-9---------------|
E|---4--4--4--4-4-4-4-4-4-4-7-7-7-7-7-7-7-7-7-7-7-7---------------|


Primeira Parte:
  G#5                         B5
She seemed dressed in all of me

Stretched across my shame
G#5                          B5
    All the torment and the pain

Leaked through and covered me
G#5                                      B5
    I'd do anything to have her to myself

Just to have her for myself
G#5                           B5
    Now I don't know what to do
                      A
I don't know what to do
                   B5 B5-
When she makes me sad

  G#5                 B5
She is everything to me

The unrequited dream
G#5                      B5
     A song that no one sings
The unattainable
G#5                                       B5
    She's a myth that I have to believe in
                                        G#5
All I need to make it real is one more reason
                      B5
I don't know what to do
                      A
I don't know what to do
                   B5 B5-
When she makes me sad

Refrão:
        G7M            F#         Bm11      D5(6/9)
 But I won't let this build up inside of me     (3x)
        G7M            F#         Bm11
 But I won't let this build up inside of me

E|---------------------------------------------------|
B|----3---3------3---3------3---3------3---3---------|
G|------6---6------6---6------6---6------6---6-------|   (3x)
D|--5----------4---------------------0---------------|
A|------------------------2--------------------------|
E|---------------------------------------------------|


E|---------------------------------------------------|
B|----3---3------3---3------3---3--------------------|
G|------6---6------6---6------6---6------------------|
D|--5----------4-------------------------------------|
A|------------------------2--------------------------|
E|---------------------------------------------------|


Segunda Parte: G  A  G  Bm

   Em7(9)        Bm11
A catch in my throat, choke
 F#m7      G7M
Torn into pieces
   Bm11
I won't, no!
   F#m7        G7M
I don't wanna be this...

E|---------------------------------------------------|
B|---------------------------------------------------|
G|-4-6-7--7--7-7-7-7-9--9-9-9-9----------------------|
D|--------5--5-5-5-5-7--7-7-7-7----------------------|
A|-2-4-5---------------------------------------------|
E|--------3--3-3-3-3-5--5-5-5-5----------------------|

   ↓ ↓ ↓  ↓  ↓ ↑ ↓ ↑ ↓  ↓ ↑ ↓ ↑


E|-------------------0--0-0-0-0----------------------|
B|-------------------3--3-3-3-3----------------------|
G|-6--6-6-6-6--7--3--4--4-4-4-4----------------------|
D|-7--7-7-7-7--5--4--4--4-4-4-4----------------------|
A|-------------------2--2-2-2-2----------------------|
E|-5--5-5-5-5--3-------------------------------------|

   ↓  ↓ ↑ ↓ ↑  ↓  ↓  ↓  ↓ ↑ ↓ ↑

Refrão:
        G7M            F#         Bm11     D5(6/9)
 But I won't let this build up inside of me     (3x)

      G7M              F#
 But I won't let this build up... inside of me

Terceira Parte 2x: G#5  B5

  G#5      B5
She isn't real
G#5                  B5
I can't make her real (2x)

( G#5 )
  • 1
  • 2
  • 3
  • 4
  • 5
  • 6
  • 7
  • 8
  • 9
  • 10
  • 11
  • 12
    Acordes para:
      Composição: SlipknotColaboração e revisão:

      0 comentários

        mostrar mais comentários

        Conseguiu tocar?

        228tocaram5ainda não

        Grave um vídeo tocando Vermilion Pt.2 e mande pra gente!

        00:00 / 00:00
        outros vídeos desta música
        repetirqualidadeautomática
        • automática
        Outro vídeos desta música
          Capítulos
          • Início
          • Tocando a música
          • Acordes da introdução e primeira parte
          • Tocando introdução e primeira parte
          • Ensinando ritmo da introdução
          • Ensinando ritmo da primeira parte
          • Acordes do refrão
          • Tocando refrão
          • Ensinando dedilhado do refrão
          • Ensinando ritmo do refrão
          • Acordes da segunda parte
          • Tocando segunda parte
          • Ensinando ritmo da segunda parte
          • Tocando terceira parte
          • Ensinando ritmo final
          • Encerramento
          00:00 / 00:00
          automática
          • automática
          fecharplay/pause subir/descer velocidade
            acordes
            fechar
            OK
            Feedback