Cifra Club

Aprenda

Everyday Superhero

Smash Mouth

Cifra: Principal (violão e guitarra)
tom: D
(guitar 1) (Lead)

(intro)
(0.00 - 0.10)
E|-------------------------------------------------------------------|
B|---10-------10------12-------12-------10-------10------12-----12---|
G|------11-------9-------12-------12-------11-------9-------12--12---|
D|---------12------11-------14-------12-------12------11-------------|
A|-------------------------------------------------------------------|
E|-------------------------------------------------------------------|

(verse 1)
(0.10 - 0.29)
No lead guitar apart from muted strumming at 0.18
E|------------x--x---x--x--x----------------|
B|------------x--x---x--x----x--------------|
G|------------x--x---x--x-------------------|
D|------------x--x---x--x-------------------|
A|------------x--x---x--x-------------------|
E|------------x--x---x--x-------------------|

(chorus 1)
(0.29 - 0.48)
E|-------------------------------------------------------------|
B|---10-------------10-----------12-----------12---------------|
G|--------11-------------9------------12-----------12----------|        (x2)
D|-------------12-----------11------------14-----------12------|
A|-------------------------------------------------------------|
E|-------------------------------------------------------------|

(verse 2)
(0.48 - 1.07)
E|-----x--x---x--x------x--x---x--x--x--------|
B|-----x--x---x--x------x--x---x--x----x------|
G|-----x--x---x--x------x--x---x--x-----------|    (x6)
D|-----x--x---x--x------x--x---x--x-----------|
A|-----x--x---x--x------x--x---x--x-----------|
E|-----x--x---x--x------x--x---x--x-----------|

(chorus 2)
(1.07 - 1.26)
E|-------------------------------------------------------------|
B|---10-------------10-----------12-----------12---------------|
G|--------11-------------9------------12-----------12----------|        (x2)
D|-------------12-----------11------------14-----------12------|
A|-------------------------------------------------------------|
E|-------------------------------------------------------------|

(bridge)
(1.26 - 1.46)
Rhythm (guitar plays chords, although Lead can play them as well
E|---------------------------------------------------------------------|
B|---------------------------------------------------------------------|
G|------------5^ (6)-----------5^ (6)---------5^ (6)--6----(7)--(7)----|
D|---(7)--(7)--------(2)--(2)---------(5)--(5)-----------7-(7)--(7)----|
A|---(7)--(7)--------(2)--(2)---------(5)--(5)-------------(5)--(5)----|
E|---(5)--(5)--------(0)--(0)---------(3)--(3)-------------------------|

E|---------------------------------------------------------------------|
B|---------------------------------------------------------------------|
G|------------6p5h6-----------5^ (6)---------5^ (6) r(5)-6-(7)--(7)----|
D|--(7)--(7)--------(2)--(2)--------(5)--(5)---------------(7)--(7)----|
A|--(7)--(7)--------(2)--(2)--------(5)--(5)---------------(5)--(5)----|
E|--(5)--(5)--------(0)--(0)--------(3)--(3)---------------------------|

E|---------------------------------------------------------------------|
B|---------------------------------------------------------------------|
G|------------8^ (9)---------8^ (9)---------8^ (9) \--(7)--(7)---------|
D|---(7)--(7)-------(2)--(2)-------(5)--(5)-----------(7)--(7)---------|
A|---(7)--(7)-------(2)--(2)-------(5)--(5)-----------(5)--(5)---------|
E|---(5)--(5)-------(0)--(0)-------(3)--(3)----------------------------|

    (Use whammy as you release bend and slide down neck)
                                   .................
E|---------------------------------------------------------------------|
B|---------------------------------------------------------------------|
G|-------------5^ (6)----------5^ (6)--------------(7)--(7)------------|
D|---(7)--(7)--------(2)--(2)---------(5)--(5)-----(7)--(7)------------|
A|---(7)--(7)--------(2)--(2)---------(5)--(5)-----(5)--(5)------------|
E|---(5)--(5)--------(0)--(0)---------(3)--(3)-------------------------|

(chorus 3)
(1.46 - 2.05)
No Lead for most of this section apart from small solo at the end starting at 2.01
E|-------------------------------10----13^ (14)r (13)^ (14)r (13)-10\-----|
B|---11^ (12) r(11)-10----10--12------------------------------------------|
G|------------------------------------------------------------------------|
D|------------------------------------------------------------------------|
A|------------------------------------------------------------------------|
E|------------------------------------------------------------------------|

(verse 3)
(2.05 - 2.17)
No Lead (guitar, just Rhythm (guitar

(chorus 4)
(2.17 - 2.36)
No Lead (guitar, just Rhythm (guitar

(2.36 - 3.28)
E|-------------------------------------------------------------------------|
B|---10-------10------12-------12------10-------10-------------------------|
G|------11-------9-------12-------12------11-------9----12-------12--------|
D|---------12------11-------14-------12------12------11----12-------12-----|
A|------------------------------------------------------------14-------12--|
E|-------------------------------------------------------------------------|

E|---------------------------------------------10-13^(14)r(13)^(14)r (13)-10|
B|-10-----10-----12----12--11^(12)r(11)-10-10-12----------------------------|
G|---11-----9-----12----12--------------------------------------------------|
D|----12-----11----14----12-------------------------------------------------|
A|--------------------------------------------------------------------------|
E|--------------------------------------------------------------------------|

E|------------------------13^(14)r(13)^(14) [x2]-16^(17)r(16)^(17) [x2]-|
B|-10----10---12----12--------------------------------------------------|
G|---11----9----12----12------------------------------------------------|
D|-----12---11----14----12----------------------------------------------|
A|----------------------------------------------------------------------|
E|----------------------------------------------------------------------|

E|--------------------------13^ (14)-17-13^ (14)r (13)-10--10h12p10~----|
B|---10----10---12----12------------------------------------------------|
G|-----11----9----12----12----------------------------------------------|
D|-------12---11----14----12--------------------------------------------|
A|----------------------------------------------------------------------|
E|----------------------------------------------------------------------|

(guitar 2) (Rhythm)

(intro)
(0.00 - 0.10)
E|-----------------------------------------------|
B|-----------------------------------------------|
G|---7-7-7-7-----------9-9-9-9-------------------|
D|---7-7-7-7--7-7-7-7--9-9-9-9--5-5-5-5----------|
A|---5-5-5-5--7-7-7-7--7-7-7-7--5-5-5-5----------|
E|------------5-5-5-5-----------3-3-3-3----------|

E|-----------------------------------------------|
B|-----------------------------------------------|
G|---7-7-7-7-------------------------------------|
D|---7-7-7-7--7-7-7-7--5---5-x--5----------------|
A|---5-5-5-5--7-7-7-7--5---5-x--5----------------|
E|------------5-5-5-5--3---3-x--3----------------|

(verse 1)
(0.10 - 0.29)
E|-----------------------------------------------------------------------|
B|-----------------------------------------------------------------------|
G|-----------------------------------------------------------------------|
D|-----------------------------------------------------------------------|
A|----5--5-5--5--------3--3-3--3-2------5--5-5--5-------3--3-3--3-2------|
E|--------------5---------------------------------5----------------------|

E|-----------------------------------------------------------------------|
B|-----------------------------------------------------------------------|
G|--------------------------------7-7-7-7--------------------------------|
D|--------------------------------7-7-7-7---7-7-7-7---5-5-5-5-5-5-5-5----|
A|----5--5-5--5-----3--3-3--3-2---5-5-5-5---7-7-7-7---5-5-5-5-5-5-5-5----|
E|--------------5---------------------------5-5-5-5---3-3-3-3-3-3-3-3----|

(chorus 1)
(0.29 - 0.48)
E|-----------------------------------------------|
B|-----------------------------------------------|
G|---7-7-7-7-----------9-9-9-9-------------------|
D|---7-7-7-7--7-7-7-7--9-9-9-9--5-5-5-5----------|
A|---5-5-5-5--7-7-7-7--7-7-7-7--5-5-5-5----------|
E|------------5-5-5-5-----------3-3-3-3----------|

E|-----------------------------------------------|
B|-----------------------------------------------|
G|---7-7-7-7-----------9-9-9-9--12-12-12-12------|
D|---7-7-7-7--7-7-7-7--9-9-9-9--12-12-12-12------|
A|---5-5-5-5--7-7-7-7--7-7-7-7--10-10-10-10------|
E|------------5-5-5-5----------------------------|

E|-----------------------------------------------|
B|-----------------------------------------------|
G|---7-7-7-7-----------9-9-9-9-------------------|
D|---7-7-7-7--7-7-7-7--9-9-9-9--5-5-5-5----------|
A|---5-5-5-5--7-7-7-7--7-7-7-7--5-5-5-5----------|
E|------------5-5-5-5-----------3-3-3-3----------|

E|-----------------------------------------------|
B|-----------------------------------------------|
G|---7-7-7-7-----------5-5-5-5-------------------|
D|---7-7-7-7--7-7-7-7--5-5-5-5--5-5-5-5----------|
A|---5-5-5-5--7-7-7-7--3-3-3-3--5-5-5-5----------|
E|------------5-5-5-5-----------3-3-3-3----------|

(verse 2)
(0.48 - 1.07)
E|--------------------------------------------------------------------|
B|--------------------------------------------------------------------|
G|--------------------------------------------------------------------|
D|--------------------------------------------------------------------|
A|----5--5-5--5--------3--3-3--3-2------5--5-5--5-------3--3-3--3-2---|
E|--------------5---------------------------------5-------------------|

E|-----------------------------------------------------------------------|
B|-----------------------------------------------------------------------|
G|---------------------------------7-7-7-7-------------------------------|
D|---------------------------------7-7-7-7---7-7-7-7---5-5-5-5-5-5-5-5---|
A|----5--5-5--5-----3--3-3--3-2----5-5-5-5---7-7-7-7---5-5-5-5-5-5-5-5---|
E|--------------5----------------------------5-5-5-5---3-3-3-3-3-3-3-3---|

(chorus 2)
(1.07 - 1.26)
E|-----------------------------------------------|
B|-----------------------------------------------|
G|---7-7-7-7-----------9-9-9-9-------------------|
D|---7-7-7-7--7-7-7-7--9-9-9-9--5-5-5-5----------|
A|---5-5-5-5--7-7-7-7--7-7-7-7--5-5-5-5----------|
E|------------5-5-5-5-----------3-3-3-3----------|

E|-----------------------------------------------|
B|-----------------------------------------------|
G|---7-7-7-7-----------9-9-9-9--12-12-12-12------|
D|---7-7-7-7--7-7-7-7--9-9-9-9--12-12-12-12------|
A|---5-5-5-5--7-7-7-7--7-7-7-7--10-10-10-10------|
E|------------5-5-5-5----------------------------|

E|-----------------------------------------------|
B|-----------------------------------------------|
G|---7-7-7-7-----------9-9-9-9-------------------|
D|---7-7-7-7--7-7-7-7--9-9-9-9--5-5-5-5----------|
A|---5-5-5-5--7-7-7-7--7-7-7-7--5-5-5-5----------|
E|------------5-5-5-5-----------3-3-3-3----------|

E|-----------------------------------------------|
B|-----------------------------------------------|
G|---7-7-7-7-----------5-5-5-5-------------------|
D|---7-7-7-7--7-7-7-7--5-5-5-5--5-5-5-5----------|
A|---5-5-5-5--7-7-7-7--3-3-3-3--5-5-5-5----------|
E|------------5-5-5-5-----------3-3-3-3----------|

(bridge)
(1.26 - 1.46)
E|-------------------------------------------------------|
B|-------------------------------------------------------|
G|----------------------------------7--7-----------------|     (x3)
D|----7--7------2--2------5--5------7--7-----------------|
A|----7--7------2--2------5--5------5--5-----------------|
E|----5--5------0--0------3--3---------------------------|

E|-------------------------------------------------------|
B|-------------------------------------------------------|
G|----------------------------------7-7-7-7-7-7-7-7------|
D|----7--7------2--2------5--5------7-7-7-7-7-7-7-7------|
A|----7--7------2--2------5--5------5-5-5-5-5-5-5-5------|
E|----5--5------0--0------3--3---------------------------|

(chorus 3)
(1.46 - 2.05)
E|---------------------------------------------------------------------|
B|---------------------------------------------------------------------|
G|---7--7----------9--9----------7-7-7-7-------------------------------|
D|---7--7---7--7---9--9---5--5---7-7-7-7--7-7-7-7--2-2-2-2--5-5-5-5----|
A|---5--5---7--7---7--7---5--5---5-5-5-5--7-7-7-7--2-2-2-2--5-5-5-5----|
E|----------5--5----------3--3------------5-5-5-5--0-0-0-0--3-3-3-3----|

E|---------------------------------------------------------------------|
B|---------------------------------------------------------------------|
G|---7--7----------9--9----------7-7-7-7-----------5-5-5-5-------------|
D|---7--7---7--7---9--9---5--5---7-7-7-7--7-7-7-7--5-5-5-5--5-5-5-5----|
A|---5--5---7--7---7--7---5--5---5-5-5-5--7-7-7-7--3-3-3-3--5-5-5-5----|
E|----------5--5----------3--3------------5-5-5-5-----------3-3-3-3----|

(verse 3)
(2.05 - 2.17)
E|--------------------------------------------------------------------------|
B|--------------------------------------------------------------------------|
-------------------------------------------5-5-5-5-5-5-5-5-5-5-5-5-5-5-5-5-|
D|------------------------------------------5-5-5-5-5-5-5-5-5-5-5-5-5-5-5-5-|
A|--5--5-5--5----3--3-3--3-2---5--5-5--5----3-3-3-3-3-3-3-3-3-3-3-3-3-3-3-3-|
E|------------5--------------------------5----------------------------------|

(chorus 4)
(2.17 - 2.36)
E|-----------------------------------------------------------------------|
B|-----------------------------------------------------------------------|
G|---7--7----------9--9----------7-7-7-7-----------9-9-9-9---------------|
D|---7--7---7--7---9--9---5--5---7-7-7-7--7-7-7-7--9-9-9-9--5-5-5-5------|
A|---5--5---7--7---7--7---5--5---5-5-5-5--7-7-7-7--7-7-7-7--5-5-5-5------|
E|----------5--5----------3--3------------5-5-5-5-----------3-3-3-3------|

E|-----------------------------------------------|
B|-----------------------------------------------|
G|---7-7-7-7-----------9-9-9-9-------------------|
D|---7-7-7-7--7-7-7-7--9-9-9-9--5-5-5-5----------|
A|---5-5-5-5--7-7-7-7--7-7-7-7--5-5-5-5----------|
E|------------5-5-5-5-----------3-3-3-3----------|

E|-----------------------------------------------|
B|-----------------------------------------------|
G|---7-7-7-7-----------5-5-5-5-------------------|
D|---7-7-7-7--7-7-7-7--5-5-5-5--5-5-5-5----------|
A|---5-5-5-5--7-7-7-7--3-3-3-3--5-5-5-5----------|
E|------------5-5-5-5-----------3-3-3-3----------|

E|-----------------------------------------------|
B|-----------------------------------------------|
G|---7-7-7-7-----------9-9-9-9-------------------|
D|---7-7-7-7--7-7-7-7--9-9-9-9--5-5-5-5----------|
A|---5-5-5-5--7-7-7-7--7-7-7-7--5-5-5-5----------|
E|------------5-5-5-5-----------3-3-3-3----------|

E|-----------------------------------------------|
B|-----------------------------------------------|
G|---7-7-7-7-----------9-9-9-9--12-12-12-12------|
D|---7-7-7-7--7-7-7-7--9-9-9-9--12-12-12-12------|
A|---5-5-5-5--7-7-7-7--7-7-7-7--10-10-10-10------|
E|------------5-5-5-5----------------------------|

E|-----------------------------------------------|
B|-----------------------------------------------|
G|---7-7-7-7-----------9-9-9-9-------------------|
D|---7-7-7-7--7-7-7-7--9-9-9-9--5-5-5-5----------|
A|---5-5-5-5--7-7-7-7--7-7-7-7--5-5-5-5----------|
E|------------5-5-5-5-----------3-3-3-3----------|

E|-----------------------------------------------|
B|-----------------------------------------------|
G|---7-7-7-7-----------5-5-5-5-------------------|
D|---7-7-7-7--7-7-7-7--5-5-5-5--5-5-5-5----------|
A|---5-5-5-5--7-7-7-7--3-3-3-3--5-5-5-5----------|
E|------------5-5-5-5-----------3-3-3-3----------|

E|-----------------------------------------------|
B|-----------------------------------------------|
G|---7-7-7-7-----------9-9-9-9-------------------|
D|---7-7-7-7--7-7-7-7--9-9-9-9--5-5-5-5----------|
A|---5-5-5-5--7-7-7-7--7-7-7-7--5-5-5-5----------|
E|------------5-5-5-5-----------3-3-3-3----------|

E|-----------------------------------------------|
B|-----------------------------------------------|
G|---7-7-7-7-----------9-9-9-9--12-12-12-12------|
D|---7-7-7-7--7-7-7-7--9-9-9-9--12-12-12-12------|
A|---5-5-5-5--7-7-7-7--7-7-7-7--10-10-10-10------|
E|------------5-5-5-5----------------------------|

E|-----------------------------------------------|
B|-----------------------------------------------|
G|---7-7-7-7-----------9-9-9-9-------------------|
D|---7-7-7-7--7-7-7-7--9-9-9-9--5-5-5-5----------|
A|---5-5-5-5--7-7-7-7--7-7-7-7--5-5-5-5----------|
E|------------5-5-5-5-----------3-3-3-3----------|

E|--------------------------|
B|--------------------------|
G|---7-7-7-7-----------5~---|
D|---7-7-7-7--7-7-7-7--5~---|
A|---5-5-5-5--7-7-7-7--3~---|
E|------------5-5-5-5-------|
Composição de Matthew Gerrard / Robbie Nevil / Steve Harwell
Colaboração e revisão:
  • Lizandra
2.424 exibições
    • ½ Tom
    • A
    • Bb
    • B
    • C
    • Db
    • D
    • Eb
    • E
    • F
    • F#
    • G
    • Ab
  • Adicionar à lista

    0 comentários

    Ver todos os comentários

    Conseguiu tocar?

    0 Tocaram 0 Ainda não

    Grave um vídeo tocando Everyday Superhero e nos envie!

    00:00 / 00:00
    outros vídeos desta música
    repetir qualidade Automático
    Outros vídeos desta música
    00:00 / 00:00
    Automático

    Cifra Club Pro

    Aproveite o Cifra Club com benefícios exclusivos e sem anúncios
    Cifra Club Pro
    Aproveite o Cifra Club com benefícios exclusivos e sem anúncios
    OK