Cifra Club

Tonight, Tonight

The Smashing Pumpkins

Cifra: Principal (violão e guitarra)
Selo Cifra Club: esta cifra foi revisada para atender aos critérios oficiais da nossa Equipe de Qualidade.
tom: F# (forma dos acordes no tom de E) Capotraste na 2ª casa
Riff 1
E|--------------------------------------------------------------------------------------------|
B|--------------------------------------------------------------------------------------------|
G|-----3------------3-------------------------------3------------3----------------------------|
D|---------4------------4---------4---------------------4-----------4----------4--------------|
A|--2-----------2------------2------------------4------------4------------4-------------------|
E|--------------------------------------------------------------------------------------------|

Riff 2
E|--------------------------------------------------------------------------------------------|
B|--------------------------------------------------------------------------------------------|
G|-------3-------------3-------------------------------3-------------3------------------------|
D|-----------4--------------4---------3--------------------4--------------4----------3--------|
A|---6------------6--------------6----------------6-------------6---------------6-------------|
E|--------------------------------------------------------------------------------------------|

Intro
E C#m (2x)

A E B (3x)

E

Riff (a cada tês vezes que tocar o riff 1 toque o riff 2 uma vez. Qualquer dúvida ouça a música.)

Time is never time at all
you can never ever leave
without leaving a piece of youth
and our lives are forever changed
we will never be the same
the more you change the less you feel
                                       E B C#m
believe, believe in me, believe, belive

F#m                   A                             E  B  C#m
that life can change, that you're not stuck in vain
F#m                   A               ( A  E  B ) x3
we're not the same, we're different tonight
    A           F#m
tonight, so bright
  ( A  E  B ) x3
Tonight
    E                  C#m
Tonight


E
and you know you're never sure
                                C#m
but you're sure you could be right
                                  E
if you held yourself up to the light
                                               C#m
and the embers never fade in your city by the lake

the place where you were born
Riff                                                 E  B  C#m
believe, believe in me, believe, believe
        F#m     A             E  B  C#m
in the resolute urgency of now
          F#m                   A               ( A  E  B ) x3
and if you believe there's not a chance tonight
    A           F#m
tonight, so bright
    A  E  B
Tonight
    E  B  C#m
tonight

      F#m           A             E  B  C#m
we'll crucify the insincere tonight
      F#m           A                            E  B  C#m
we'll make things right, we'll feel it all tonight
      F#m           A                        E  B  C#m
we'll find a way to offer up the night tonight
      F#m           A                        E  B  C#m
the indescribable moments of your life tonight
      F#m         A              E  B  C#m
the impossible is possible tonight
 F#m                A                 Riff
believe in me as i believe in you, tonight

tonight, tonight, tonight,
        E  B  C#m
tonight
Outros vídeos desta música
    4.774 exibições
      • ½ Tom
      • A
      • Bb
      • B
      • C
      • Db
      • D
      • Eb
      • E
      • F
      • F#
      • G
      • Ab
    • Adicionar à lista

    Afinação da cifra

    Afinador online

      0 comentários

      Ver todos os comentários

      Conseguiu tocar?

      1Tocaram0Ainda não

      Grave um vídeo tocando Tonight, Tonight e nos envie!

      Toque também

      1. Imagem do artista Pearl JamBlack Pearl Jam
      2. Imagem do artista PixiesWhere Is My Mind Pixies
      3. Imagem do artista Stone Temple PilotsPlush Stone Temple Pilots
      4. Imagem do artista SoundgardenBlack Hole Sun Soundgarden

      Entre para o Cifra Club PRO

      Tenha acesso a benefícios exclusivos no App e no Site

      • Chega de anúncios

      • Badges exclusivas

      • Mais recursos no app do Afinador

      • Atendimento Prioritário

      • Aumente seu limite de lista

      • Ajude a produzir mais conteúdo

      Cifra Club Pro

      Aproveite o Cifra Club com benefícios exclusivos e sem anúncios
      Cifra Club Pro
      Aproveite o Cifra Club com benefícios exclusivos e sem anúncios
      Ops (: Contenido disponible sólo en portugués.
      OK