Cifra Club

Hands Open

Snow Patrol

Tab de baixo: Principal
exibições 634
Transcribed by SergioBAM

Guitar Intro

Come in at 0:15 with:

G|----------------|
D|----------------| 4x
A|----------------|
E|3-3-3-3-3-3-3-3-|

G|----------------|----------------|
D|----------------|----------------| 4X
A|----------------|6-6-6-6---------|
E|3-3-3-3-1-1-1-1-|--------6-6-6-6-|

G|----------------|----------------|
D|----------------|----------------| 4X
A|--------0-0-0-0-|1-1-1-1-1-1-1-1-|
E|3-3-3-3---------|----------------|

G|----------------|----------------|
D|----------------|----------------| 4X
A|----------------|6-6-6-6---------|
E|3-3-3-3-1-1-1-1-|--------6-6-6-6-|

G|----------------------------|----------------------------|
D|----------------------------|----------------------------| 4x
A|---------------3-3-3--6-6-6-|----------------------------|
E|6-6-6-6-6-6-6---------------|3-3-3-3-3-3-3--4-4-4--4-4-4-|

G|----------------|----------------|
D|----------------|----------------| 4X
A|--------0-0-0-0-|1-1-1-1-1-1-1-1-|
E|3-3-3-3---------|----------------|

Guitar Only 1:56

Come Back in at 2:12 with:

G|---------------------------|----------------------------|
D|---------------------------|----------------------------| 8x
A|---------------3-3-3-6-6-6-|----------------------------|
E|6-6-6-6-6-6-6--------------|3-3-3-3-3-3-3--4-4-4--4-4-4-|

End

0 comentários

    mostrar mais comentários

    Conseguiu tocar?

    1tocaram0ainda não

    Grave um vídeo tocando Hands Open e mande pra gente!

    00:00 / 00:00
    outros vídeos desta música
    repetirqualidadeautomática
    Outro vídeos desta música
      00:00 / 00:00
      automática
      OK