Cifra Club

Dietetico

Soda Stereo

Cifra: Principal (violão e guitarra)
Selo Cifra Club: esta cifra foi revisada para atender aos critérios oficiais da nossa Equipe de Qualidade.
tom: B
Intro

E|---------------------------|
B|---------------------------|
G|---------------------------| x las veces q sean necesarias
D|---------------------------|
A|---5-5--3------------3-----| (Después lo hace el bajo)
E|-----------5--2--5---------|

E|----10-//-8-----7--//--5-----------------x--x-x-|
B|----12-//-10----8--//--6-----------------x--x-x-| x 2
G|----12-//-9-----9--//--7------5------5---x--x-x-|
D|--------------------------5-5h7----5h7-----| <==== Rápido
A|-----------------------------------------------|
E|-----------------------------------------------|

==================================================

(CORO)
Dietético, dietético
E|----10-//-8-----7--//--5-----------------x--x-x-|
B|----12-//-10----8--//--6-----------------x--x-x-|
G|----12-//-9-----9--//--7------5------5---x--x-x-|
D|--------------------------5-5h7----5h7----------|
A|------------------------------------------------|
E|------------------------------------------------|

==================================================

Somos un conjunto dietético  Tiramos una onda dietética

E|-----------11--11-----| e ---13p12-----------
B|-----------13--13-----| B ---------13p11----- <== esto si
G|-----------13--13-----| G ---------------13p11    es rápido

Canciones de amor con sacarina
Con menos de una caloria

(en la version del SodaStereo pueden usar todas las triadas
 con palm mute en las partes donde no hay guitarra)

E|-------| >SE D PITE EL CORO<-----------

Somos un conjunto dietético  Mejoramos un mensaje genetico

E|-----------11--11-----| e ---13-^^--11--
B|-----------13--13-----| B ---13-^^------
G|-----------13--13-----| G --------------

(Pueden hacer las armónicas de abajo y les meten wah

b --7 e --12 e --7)

Sacude tu cuerpo libre
Consume que no hay peligro (peligro)

E|-------| >SE D PITE EL CORO<-----------

en la segunda parte del coro hacen

Dietético, dietético
E|----10-//-8----12---10---14---12---17---14--19--|
B|----12-//-10--(12)-(10)-(14)-(12)-(17)-(14)-----|
G|----13-//-9-------------------------------------|
D|------------------------------------------------|
A|------------------------------------------------|
E|------------------------------------------------|


Somos un conjunto dietetico
Buscando el paraiso estetico  G --9p10p11h10h9---
Nuevas mentes descremadas      (muuuuuy rapido)
Siluetas de gimnasia

E|-------| >SE D PITE EL CORO<-----------

Viviendo una nada dietetica             e -13p11------11
Soñando con una cama sintetica--------->B ------13p11---
Te quiero pero estas tan gorda          G --------------
Presiento que no sos moderna [moderna]       [Rapido]

=========================================================
Se podria decir que este es el solo
E|--------------------------------------------|
B|--------------------------------------------|
G|------5h7------5----------------------------| x4
D|--5h7------5h7-----------5h7----5-----------|
A|---------------------5h7-----5h7--------8-8-|
E|------------------------------------5h7-----|

(Esa parte la hacen moviendo rapido los dedos
de la mano izquierda y no usan casi el pick,
asi les suena mejor.)

=========================================================

E|--10---10---10---10-10-10---101010101010---|
B|--12---12---12---12-12-12---121212121212---|
G|--12---12---12---12-12-12---121212121212---|

(Primero lo tocan despacio y le van
aumentando la velocidad hasta q suene
continuo)

en el video hacen esto despues

E|---111111---7//111111//15//1111-|
B|---131313---9//131313//17//1313-|
G|---131313---9//131313//17//1313-|

(No se cuantas veces hace eso pero
ahi se entiende q es un slide)

=========================================================

cuando termina el ooohhh ohhh oohaaaa hacen algo como

e x--x--x--x--
B 3--5--7--10-
G 4--6--8--11-
D x--x--x--x--

Tambien hacen esto

E|--x-x-x-x-3| Tambien    e --x-x-x-2
B|--3-3-3-3-x| <--pueden  -->B --2-2-2-x <-- x 2
G|--4-4-4-4-x| arpegear   G --3-3-3-x

El re-gi-men se a-ca-bo se a-ca-bo

E|--x-x-x-x-3| e --x-x-x-2
B|--3-3-3-3-x| B --2-2-2-x
G|--4-4-4-4-x| G --3-3-3-x

(arpegean)

================================================

y cuando al fin dicen ¡¡¡se ACABO!!

E|--6-6---8--|
B|--6-6---8--| <-- Varias
G|--7-7---9--| Veces


Y el final

E|---------------------------|
B|---------------------------| aunq creo q
G|---------------------------| el q termina
D|---------------------------| es el bajo
A|---5-5--3------------3-----|
E|-----------5--2--5---------|

termina con

E -3   E -3
B -4 ó B -4
G -4   G -5
00:00 / 00:00
Outros vídeos desta música
Repetir
Outros vídeos desta música
823 exibições
    • ½ Tom
    • A
    • Bb
    • B
    • C
    • Db
    • D
    • Eb
    • E
    • F
    • F#
    • G
    • Ab
  • Adicionar à lista

Afinação da cifra

Afinador online

    0 comentários

    Ver todos os comentários

    Entre para o Cifra Club PRO

    Tenha acesso a benefícios exclusivos no App e no Site

    • Chega de anúncios

    • Mais recursos no app do Afinador

    • Atendimento Prioritário

    • Aumente seu limite de lista

    • Ajude a produzir mais conteúdo

    00:00 / 00:00

    Cifra Club Pro

    Aproveite o Cifra Club com benefícios exclusivos e sem anúncios
    Cifra Club Pro
    Aproveite o Cifra Club com benefícios exclusivos e sem anúncios
    OK