Cifra Club

El Rito

Soda Stereo

Cifra: Versão 3 (violão e guitarra)
Selo Cifra Club: esta cifra foi revisada para atender aos critérios oficiais da nossa Equipe de Qualidade.
tom: C
            Dm7           G7        Bbm7       F

INTRO e|------5----5----5----5----5----5----5----5----5----5--5--------|
B|----8----8----8----8----8----8----8----8----8----8----8--------|
G|--7----7----7----7----7----7----7----7----7----7------7--------|
D|---------------------------------------------------------------|
A|---------------------------------------------------------------|
E|---------------------------------------------------------------|

        1ra Guitarra Empieza Asi Mientras que la 2da hace los Acordes



       F
Soy un profanador

E|-----------------|
B|-----------------|
G|-----------------| Con Palm Mute
D|--3333333333-----|
A|-----------------|
E|-----------------|

estoy desafiando al tiempo

E|-----------------|
B|-----------------|
G|-----------------| Con Palm Mute
D|--3333333333-----|
A|-----------------|
E|-----------------|

  G
ya ves mi transgresion

E|-----------------|
B|-----------------|
G|-----------------| Con Palm Mute
D|--5555555555-----|
A|-----------------|
E|-----------------|

es procurar tenerte

E|-----------------|
B|-----------------|
G|-----------------| Con Palm Mute
D|--5555555555-----|
A|-----------------|
E|-----------------|

 F
el cielo entiende de mi obsesion

E|--1------1---1--1---3--|
B|---1--0h1-----1--1-----|
G|----2-------------2----|
D|-----------------------|
A|-----------------------|
E|-----------------------|

esta llegando a un limite

E|--1------1---1--1---3--|
B|---1--0h1-----1--1-----|
G|----2-------------2----|
D|-----------------------|
A|-----------------------|
E|-----------------------|

  G
el desierto, al menos hoy

E|--5---3----------3----|
B|---3---3-------3------|
G|----4---4----4--------|
D|-----------5----------|
A|----------------------|
E|----------------------|
no parece, no parece tan...

E|--5---3----------3----|
B|---3---3-------3------|
G|----4---4----4--------|
D|-----------5----------|
A|----------------------|
E|----------------------|


    Sueles Encontrarme.....En Cualquier Lugar

      Dm7                                 G7

E|-5-----5-----5-----5-----5--------5------5-----5-----5-----|
B|---8-----8-----8-----8-----8--------8------8-----8-----8---|
G|-----7-----7-----7-----7-----7--------4------4-----4-----4-|
D|-----------------------------------------------------------|
A|-----------------------------------------------------------|
E|-----------------------------------------------------------|


    Y Ya Lo Sabes Nada.....  Es Casualidad

       Bbm7                 F

E|-5-----5-----5-----5-------5-----5-----5-----5-------------|
B|---8-----8-----8-----8-------8-----8-----8-----8-----------|
G|-----8-----8-----8-----8-------7-----7-----7-----7---------|
D|-----------------------------------------------------------|
A|-----------------------------------------------------------|
E|-----------------------------------------------------------|



     Tu Misteriosa Forma ..... Me Lastimara

        Dm7                      G7

E|-5-----5-----5-----5-----5--------5------5-----5-----5-----|
B|---8-----8-----8-----8-----8--------8------8-----8-----8---|
G|-----7-----7-----7-----7-----7--------4------4-----4-----4-|
D|-----------------------------------------------------------|
A|-----------------------------------------------------------|
E|-----------------------------------------------------------|



     Pero A Cada Segundo Estare ... Mas Cerca

         Bbm7                     F

E|-5-----5-----5-----5-------5-----5-----5-----5-------------|
B|---8-----8-----8-----8-------8-----8-----8-----8-----------|
G|-----8-----8-----8-----8-------7-----7-----7-----7---------|
D|-----------------------------------------------------------|
A|-----------------------------------------------------------|
E|-----------------------------------------------------------|













 Mas...Mas....


E|----------------------------------x10x10---x1010~--|
B|----------------------------------x10x10---x1010~--|
G|-----------------------7-9-------------------------|
D|----------9---------9------8~~~--------------------|
A|--7~-9-10-----7-9-10-------------------------------|
E|---------------------------------------------------|

E|---------------------------------------------------|
B|-------------------------7---8---7---7---7---------|
G|------------------------7---7---7--------7---------|
D|----------9---------9---------------7----7---------|
A|-7~-9-10-----7-9-10--------------------------------|
E|---------------------------------------------------|


     F
Paralizandome

E|-----------------|
B|-----------------|
G|-----------------| Con Palm Mute
D|--3333333333-----|
A|-----------------|
E|-----------------|

jamas podre esperarte

E|-----------------|
B|-----------------|
G|-----------------| Con Palm Mute
D|--3333333333-----|
A|-----------------|
E|-----------------|

       G
y no tengo porque esperar

E|-----------------|
B|-----------------|
G|-----------------| Con Palm Mute
D|--5555555555-----|
A|-----------------|
E|-----------------|

en un altar de sacrificios

E|-----------------|
B|-----------------|
G|-----------------| Con Palm Mute
D|--5555555555-----|
A|-----------------|
E|-----------------|

         F
solo meterme en tu ritual

E|--1------1---1--1---3--|
B|---1--0h1-----1--1-----|
G|----2-------------2----|
D|-----------------------|
A|-----------------------|
E|-----------------------|

y descifrar tu enigma

E|--1------1---1--1---3--|
B|---1--0h1-----1--1-----|
G|----2-------------2----|
D|-----------------------|
A|-----------------------|
E|-----------------------|

           G
tal vez no hablar de mas (shhh)

E|--5---3----------3----|
B|---3---3-------3------|
G|----4---4----4--------|
D|-----------5----------|
A|----------------------|
E|----------------------|


el silencio no es tiempo perdido

E|--5---3----------3----|
B|---3---3-------3------|
G|----4---4----4--------|
D|-----------5----------|
A|----------------------|
E|----------------------|




   Sueles Encontrarme.....En Cualquier Lugar

      Dm7                                 G7

E|-5-----5-----5-----5-----5--------5------5-----5-----5-----|
B|---8-----8-----8-----8-----8--------8------8-----8-----8---|
G|-----7-----7-----7-----7-----7--------4------4-----4-----4-|
D|-----------------------------------------------------------|
A|-----------------------------------------------------------|
E|-----------------------------------------------------------|


    Y Ya Lo Sabes Nada.....  Es Casualidad

       Bbm7                 F

E|-5-----5-----5-----5-------5-----5-----5-----5-------------|
B|---8-----8-----8-----8-------8-----8-----8-----8-----------|
G|-----8-----8-----8-----8-------7-----7-----7-----7---------|
D|-----------------------------------------------------------|
A|-----------------------------------------------------------|
E|-----------------------------------------------------------|



     Tu Misteriosa Forma ..... Me Lastimara

        Dm7                      G7

E|-5-----5-----5-----5-----5--------5------5-----5-----5-----|
B|---8-----8-----8-----8-----8--------8------8-----8-----8---|
G|-----7-----7-----7-----7-----7--------4------4-----4-----4-|
D|-----------------------------------------------------------|
A|-----------------------------------------------------------|
E|-----------------------------------------------------------|



     Pero A Cada Segundo Estare ... Mas Cerca

         Bbm7                     F

E|-5-----5-----5-----5-------5-----5-----5-----5-------------|
B|---8-----8-----8-----8-------8-----8-----8-----8-----------|
G|-----8-----8-----8-----8-------7-----7-----7-----7---------|
D|-----------------------------------------------------------|
A|-----------------------------------------------------------|
E|-----------------------------------------------------------|







 Mas ... Mas...



E|---xx7-5---xx7-5---xx7--10--13~--15---6~------|
B|---xx7-5---xx7-5---xx7--10--12~--15---5~------|
G|---xx7-5---xx7-5---xx7------12~-------5~------|
D|----------------------------------------------|
A|----------------------------------------------|
E|----------------------------------------------|
                            - Desafiando al rito


E|---xx7-5---xx7-5---xx7--10--13~--15---6~------|
B|---xx7-5---xx7-5---xx7--10--12~--15---5~------|
G|---xx7-5---xx7-5---xx7------12~-------5~------|
D|----------------------------------------------|
A|----------------------------------------------|
E|----------------------------------------------|
                             - destruyendo mitos


E|----------------------------------x10x10---x1010~--|
B|----------------------------------x10x10---x1010~--|
G|-----------------------7-9-------------------------|
D|----------9---------9------8~~~--------------------|
A|--7~-9-10-----7-9-10-------------------------------|
E|---------------------------------------------------|

E|---------------------------------------------------|
B|-------------------------7---8---7---7---7---------|
G|------------------------7---7---7--------7---------|
D|----------9---------9---------------7----7---------|
A|-7~-9-10-----7-9-10--------------------------------|
E|---------------------------------------------------|



         1ra Guitarra                F              2da Guitarra

E|----------------------| e|-1------1---1---1---3----
B|----------------------| B|--1--0h1-----1---1-------
G|----------------------| Palm Mute         G|---2--------------2------
D|---333333333333-------| D|-------------------------
A|----------------------| A|-------------------------
E|----------------------| E|-------------------------

        1ra Guitarra                G               2da Guitarra

E|----------------------| e|--5---3----------3-------
B|----------------------| B|---3---3-------3---------
G|----------------------| Palm Mute         G|----4---4----4-----------
D|--5555555555----------| D|-----------5-------------
A|----------------------| A|-------------------------
E|----------------------| E|-------------------------



  Sueles Encontrarme.....En Cualquier Lugar

      Dm7                                 G7

E|-5-----5-----5-----5-----5--------5------5-----5-----5-----|
B|---8-----8-----8-----8-----8--------8------8-----8-----8---|
G|-----7-----7-----7-----7-----7--------4------4-----4-----4-|
D|-----------------------------------------------------------|
A|-----------------------------------------------------------|
E|-----------------------------------------------------------|


    Y Ya Lo Sabes Nada.....  Es Casualidad

       Bbm7                 F

E|-5-----5-----5-----5-------5-----5-----5-----5-------------|
B|---8-----8-----8-----8-------8-----8-----8-----8-----------|
G|-----8-----8-----8-----8-------7-----7-----7-----7---------|
D|-----------------------------------------------------------|
A|-----------------------------------------------------------|
E|-----------------------------------------------------------|



     Tu Misteriosa Forma ..... Me Lastimara

        Dm7                      G7

E|-5-----5-----5-----5-----5--------5------5-----5-----5-----|
B|---8-----8-----8-----8-----8--------8------8-----8-----8---|
G|-----7-----7-----7-----7-----7--------4------4-----4-----4-|
D|-----------------------------------------------------------|
A|-----------------------------------------------------------|
E|-----------------------------------------------------------|



     Pero A Cada Segundo Estare ... Mas Cerca

         Bbm7                     F

E|-5-----5-----5-----5-------5-----5-----5-----5-------------|
B|---8-----8-----8-----8-------8-----8-----8-----8-----------|
G|-----8-----8-----8-----8-------7-----7-----7-----7---------|
D|-----------------------------------------------------------|
A|-----------------------------------------------------------|
E|-----------------------------------------------------------|


 Mas... Mas...




E|---xx7-5---xx7-5---xx7--10--13~--15---6~------|
B|---xx7-5---xx7-5---xx7--10--12~--15---5~------|
G|---xx7-5---xx7-5---xx7------12~-------5~------|
D|----------------------------------------------|
A|----------------------------------------------|
E|----------------------------------------------|
                            - Desafiando al rito


E|---xx7-5---xx7-5---xx7--10--13~--15---6~------|
B|---xx7-5---xx7-5---xx7--10--12~--15---5~------|
G|---xx7-5---xx7-5---xx7------12~-------5~------|
D|----------------------------------------------|
A|----------------------------------------------|
E|----------------------------------------------|
                             - destruyendo mitos




E|---xx7-5---xx7-5---xx7--10--13~--15---6~------|
B|---xx7-5---xx7-5---xx7--10--12~--15---5~------|
G|---xx7-5---xx7-5---xx7------12~-------5~------|
D|----------------------------------------------|
A|----------------------------------------------|
E|----------------------------------------------|
                            - Desafiando al rito


E|---xx7-5---xx7-5---xx7--10--13~--15---6~------|
B|---xx7-5---xx7-5---xx7--10--12~--15---5~------|
G|---xx7-5---xx7-5---xx7------12~-------5~------|
D|----------------------------------------------|
A|----------------------------------------------|
E|----------------------------------------------|
                             - destruyendo mitos





E|-----------------------------------------------------|
B|------------------------------------8-6-5-6-5--------|
G|------------7---------7---5-4-5-4-------------7-5-7--|
D|--0---4-5h7---0-4h5h7-------------5------------------|
A|-----------------------------------------------------|
E|-----------------------------------------------------|

E|-----------------------------------------------------|
B|-------------------------------------8-6-5-6-5-------|
G|---------------------------5-4-5-4-------------7-5-7-|
D|-16-17-19h22---16-17-19h21---------5-----------------|
A|-----------------------------------------------------|
E|-----------------------------------------------------|
Outros vídeos desta música
    171 exibições
      • ½ Tom
      • A
      • Bb
      • B
      • C
      • Db
      • D
      • Eb
      • E
      • F
      • F#
      • G
      • Ab
    • Adicionar à lista

    Afinação da cifra

    Afinador online

      0 comentários

      Ver todos os comentários

      Entre para o Cifra Club PRO

      Tenha acesso a benefícios exclusivos no App e no Site

      • Chega de anúncios

      • Mais recursos no app do Afinador

      • Atendimento Prioritário

      • Aumente seu limite de lista

      • Ajude a produzir mais conteúdo

      Cifra Club Pro

      Aproveite o Cifra Club com benefícios exclusivos e sem anúncios
      Cifra Club Pro
      Aproveite o Cifra Club com benefícios exclusivos e sem anúncios
      OK