Cifra Club

Final Caja Negra

Soda Stereo

Cifra: Principal (violão e guitarra)
Selo Cifra Club: esta cifra foi revisada para atender aos critérios oficiais da nossa Equipe de Qualidade.
tom: G#m
E|------------| I
B|------------| I
G|--------(4)-| I x2 ( )se refiere a armonicos
D|-(4)--------| I
A|-----(4)----| I
E|------------| I

E|-13--11---9---7----7~-|
B|-15--11---9---7----9~-|
G|-15--12---9---8----9~-| x2   Se golpean las cuerdas con la mano derecha
D|-15--13---11--9----9~-|
A|-13--13---11--9----7~-|
E|------11---9---7----7~-|

E|-4-------5-------------------------------4--------------4--------4---| I
B|---5----------7------7----7---7----7-------5-----7--------5----7---5-| I
G|-----6------7------7----7---7----7----7-------7------7-------7-------| I
D|------------------------------------------| - - ----------------------Ix2
A|---------------------------------------------------------------------| I
E|---------------------------------------------------------------------| I

E|-------------------------------| I
B|-------------------------------| I
G|--------7--6-------4----------| I
D|-7~----------7--------5~----| I
A|-------------------------------| I
E|-------------------------------| I

E|-------| I
B|-3/10-| I
G|-------| Ix1
D|-------| I
A|-------| I
E|-------| I

riff1:

E|---------------------------------------------------------------------| I
B|-12-12--9-9-----9---12-12b--9-------9--12-12--9-9--------11-11--12-9-| I
G|------------11p9--------------9h11---------------11p9-11-------------| I
D|---------------------------------------------------------------------| I
A|---------------------------------------------------------------------| I
E|---------------------------------------------------------------------| I

Verso


E|--X-X-X-X-X-X-X-X-X-X-X-X-X-X-X-X-|
B|--X-X-X-X-X-X-X-X-X-X-X-X-X-X-X-X-|
G|--X-X-X-X-X-X-X-X-X-X-X-X-X-X-X-X-| x3
D|--6-6-6-6-6-6-6-6-4-4-4-4-4-4-4-4-|
A|--7-7-7-7-7-7-7-7-5-5-5-5-5-5-5-5-|
E|--X-X-X-X-X-X-X-X-X-X-X-X-X-X-X-X-|

E|--X-X-X-X-X-X-X-X-X-X-X-X-X-X-X-X-|
B|--X-X-X-X-X-X-X-X-X-X-X-X-X-X-X-X-|
G|--X-X-X-X-X-X-X-X-X-X-X-X-X-X-X-X-|
D|--8-8-8-8-8-8-8-8-8-8-8-8-8-8-8-8-|
A|--9-9-9-9-9-9-9-9-9-9-9-9-9-9-9-9-|
E|--X-X-X-X-X-X-X-X-X-X-X-X-X-X-X-X-|

E|--X-X-X-X-X-X-X-X-X-X-X-X-X-X-X-X-|
B|--X-X-X-X-X-X-X-X-X-X-X-X-X-X-X-X-|
G|--X-X-X-X-X-X-X-X-X-X-X-X-X-X-X-X-| x3
D|--6-6-6-6-6-6-6-6-4-4-4-4-4-4-4-4-|
A|--7-7-7-7-7-7-7-7-5-5-5-5-5-5-5-5-|
E|--X-X-X-X-X-X-X-X-X-X-X-X-X-X-X-X-|

E|--X-X-X-X-X-X-X-X-X-X-X-X-X-X-X-X-|
B|--X-X-X-X-X-X-X-X-X-X-X-X-X-X-X-X-|
G|--X-X-X-X-X-X-X-X-X-X-X-X-X-X-X-X-|
D|--8-8-8-8-8-8-8-8-8-8-8-8-8-8-8-8-|
A|--9-9-9-9-9-9-9-9-9-9-9-9-9-9-9-9-|
E|--X-X-X-X-X-X-X-X-X-X-X-X-X-X-X-X-|

se repite riff1 y viene el verso de nuevo

E|--X-X-X-X-X-X-X-X-2-2-2-2-2-2-2-2-|
B|--X-X-X-X-X-X-X-X-3-3-3-3-3-3-3-3-|
G|--1-1-1-1-1-1-1-1-2-2-2-2-2-2-2-2-| x3
D|--2-2-2-2-2-2-2-2-0-0-0-0-0-0-0-0-|
A|--2-2-2-2-2-2-2-2-X-X-X-X-X-X-X-X-|
E|--0-0-0-0-0-0-0-0-X-X-X-X-X-X-X-X-|

E|--X-X-X-X-X-X-X-X-X-X-X-X-X-X-X-X-|
B|--X-X-X-X-X-X-X-X-X-X-X-X-X-X-X-X-|
G|--3-3-3-3-3-3-3-3-3-3-3-3-3-3-3-3-|
D|--4-4-4-4-4-4-4-4-4-4-4-4-4-4-4-4-|
A|--4-4-4-4-4-4-4-4-4-4-4-4-4-4-4-4-|
E|--2-2-2-2-2-2-2-2-2-2-2-2-2-2-2-2-|

E|-7-7-7-7-7-7-7-7-5-5-5-5-5-5-5-5-| I
B|-7-7-7-7-7-7-7-7-5-5-5-5-5-5-5-5-| I
G|-9-9-9-9-9-9-9-9-7-7-7-7-7-7-7-7-| I x3
D|-9-9-9-9-9-9-9-9-7-7-7-7-7-7-7-7-| I
A|-7-7-7-7-7-7-7-7-5-5-5-5-5-5-5-5-| I
E|-7-7-7-7-7-7-7-7-5-5-5-5-5-5-5-5-| I

E|-9-9-9-9-9-9-9-9-9-9-9-9-9-9-9-9-| I
B|-9-9-9-9-9-9-9-9-9-9-9-9-9-9-9-9-| I
G|-11-11-11-11-11-11-11-11-11-11-| I
D|-11-11-11-11-11-11-11-11-11-11-| I
A|-9-9-9-9-9-9-9-9-9-9-9-9-9-9-9-9-| I
E|-9-9-9-9-9-9-9-9-9-9-9-9-9-9-9-9-| I

se repite riff1 y viene esto:

E|-12-12--9-9---------12-12b--9---------12-12-9-9--------------------| I
B|-12-12--9-9----9----12-12b--9------9--12-12-9-9--------11-11-12-9--| I
G|-----------11p9---------------9h11-------------11p9-11-------------| I
D|-------------------------------------------------------------------| I
A|-------------------------------------------------------------------| I
E|-------------------------------------------------------------------| I

y viene un intermedio:

E|-------0---0----0------0----0-----0---------5-------4--------------| I
B|-----4----0----4------5----4-----5-----7-----------7----7----5---4-| I
G|---4-----1----4------6----4----6---------6-------6----6----6---6---| I x2
D|-6------2----6------7----6---7-----------------------7----7---7----| I
A|-------2-----------------------------------------------------------| I
E|-------------------------------------------------------------------| I

Y viene esto con mucha distorcion:

E|-7---7---7---7---9--10---3---5--| I
B|-9---7---9---7---9--10---3---5--| I
G|-9---7---9---7---9--10---4---6--| I
D|-9---9---9---9--11--12---5---7--| I
A|-7---9---7---9--11--12---5---7--| I
E|-7---7---7---7---9--10---3---5--| I

E|-7---9---7---12--10--9-------------9---10---12-12-12-12-12-| I
B|-9---7---9----------------10--9----9---10---12-12-12-12-12-| I
G|-9---7---9-------------------------9---10----9--9--9--9--9-| I
D|-9---7---9-------------------------9---10--x-x-x-x-x-x-x-x-| I
A|-7---9---7-------------------------11--12------------------| I
E|-7---7---7-------------------------9---10------------------| I

E|-12-12-12-12-12-12-12-12-12-| I
B|-12-12-12-12-12-12-12-12-12-| I
G|--9--9--9--9--9--9--9--9--9-| I
D|-x-x-x-x-x-x-x-x-x-x-x-x-x--| I
A|----------------------------| I
E|----------------------------| I

se repite el riff1 y Cerati hace un solo,
 si alguien lo saca porfa que lo agregue

    riff2

E|------------------------------------------------| I
B|-7--9----7--9----7--9----7--9----10--10--9------| I
G|-7--9----7--9----7--9----7--9----9----9--9-----| I x 3
D|-7--9----7--9----7--9----7--9----11--11--9-------| I
A|------------------------------------------------| I
E|------------------------------------------------| I

se repite riff1 y Cierra la cancion  con el riff2.

ESo sería, me demoré mucho en trancribirla,
y me gustaria que comenten la tablatura
, la completen o la corrijan.
00:00 / 00:00
Outros vídeos desta música
Repetir
Outros vídeos desta música
815 exibições
    • ½ Tom
    • Am
    • Bbm
    • Bm
    • Cm
    • C#m
    • Dm
    • Ebm
    • Em
    • Fm
    • F#m
    • Gm
    • G#m
  • Adicionar à lista

Afinação da cifra

Afinador online

    0 comentários

    Ver todos os comentários

    Entre para o Cifra Club PRO

    Tenha acesso a benefícios exclusivos no App e no Site

    • Chega de anúncios

    • Mais recursos no app do Afinador

    • Atendimento Prioritário

    • Aumente seu limite de lista

    • Ajude a produzir mais conteúdo

    00:00 / 00:00

    Cifra Club Pro

    Aproveite o Cifra Club com benefícios exclusivos e sem anúncios
    Cifra Club Pro
    Aproveite o Cifra Club com benefícios exclusivos e sem anúncios
    OK