Cifra Club

Signos

Soda Stereo

Cifra: Versão 3 (violão e guitarra)
Selo Cifra Club: esta cifra foi revisada para atender aos critérios oficiais da nossa Equipe de Qualidade.
tom: G
E|----------------------------------------------|
B|----------------------------------------------|
G|----------------------------------------------|
D|------------------------10-12-10--------------|
A|-12-12-12-12-12-12-12-12--------12-12-12-12-12|
E|----------------------------------------------|

E|-----------------------------------------|
B|----------------13-12-10-----------------|
G|---------12-11-9--------12-11-9----------|
D|-10-12-10----------------------12-10-----|
A|------------------------------------12-10|
E|-----------------------------------------|

E|----------------------------------------------|
B|----------------------------------------------|
G|----------------------------------------------|
D|------------------------10-12-10--------------|
A|-12-12-12-12-12-12-12-12--------12-12-12-12-12|
E|----------------------------------------------|

E|--------------------------------------------------------|
B|----------------13-12h13-15-13h15-17-15h17-19-17h19-20s0|
G|---------12-11-9----------------------------------------|
D|-10-12-10-----------------------------------------------|
A|--------------------------------------------------------|
E|--------------------------------------------------------|

E|----------------------------------------------|
B|----------------------------------------------|
G|----------------------------------------------|
D|------------------------10-12-10--------------|
A|-12-12-12-12-12-12-12-12--------12-12-12-12-12|
E|----------------------------------------------|

E|---------------------------------------------|
B|----------------12-10h12-13-12-10------------|
G|---------12-11-9-----------------12-11-9-----|
D|-10-12-10-------------------------------12-10|
A|---------------------------------------------|
E|---------------------------------------------|

E|----------------------------------------------|
B|----------------------------------------------|
G|----------------------------------------------|
D|------------------------10-12-10--------------|
A|-12-12-12-12-12-12-12-12--------12-12-12-12-12|
E|----------------------------------------------|

E|--------------------------------------------------------|
B|----------------13-12h13-15-13h15-17-15h17-19-17h19-20s0|
G|---------12-11-9----------------------------------------|
D|-10-12-10-----------------------------------------------|
A|--------------------------------------------------------|
E|--------------------------------------------------------|

acaba intro

VERSOS
  Am         Em             G
E|-----------| I-------------I-----0----I-----0---
B|------5----| I------0------I---3---3--I---1---1-
G|----5---5--| I----0---0----I--4-4-4-4-I--2-2-2-2
D|-7-7-7-7-7-| I-2-2-2-2-2-2-I-5--------I-3-------
A|-----------| I-------------I----------I---------
E|-----------| I-------------I----------I---------

(SE D PITE EN TOC S LOS VERSOS)

cOROS: Am, D; Am7, D, C; Am, D; Am7, D, C
(SUENA MEJOR B  HACES LOS ACORDES CON CEJILA )

PARTE PD VIA AL ULTIMO CORO:
(es un C#m, solo varia la 1er cuerda)

E|--------------------------------------|
B|-----9--------9---------9--------9----|
G|------9--------9---------9---------9--|
D|---11--11---11---11---11--11---11---11|
A|-11-------11--------11-------11-------|
E|--------------------------------------|

E|-----9-------9-------12-------16|
B|------9-------9--------9--------|
G|-------9-------9--------9-------|
D|---11------11------11-------11--|
A|-11------11------11-------11----|
E|--------------------------------(| empieza coro por ultima vez)
Outros vídeos desta música
    656 exibições
      • ½ Tom
      • A
      • Bb
      • B
      • C
      • Db
      • D
      • Eb
      • E
      • F
      • F#
      • G
      • Ab
    • Adicionar à lista

    Afinação da cifra

    Afinador online

      0 comentários

      Ver todos os comentários

      Entre para o Cifra Club PRO

      Tenha acesso a benefícios exclusivos no App e no Site

      • Chega de anúncios

      • Badges exclusivas

      • Mais recursos no app do Afinador

      • Atendimento Prioritário

      • Aumente seu limite de lista

      • Ajude a produzir mais conteúdo

      Cifra Club Pro

      Aproveite o Cifra Club com benefícios exclusivos e sem anúncios
      Cifra Club Pro
      Aproveite o Cifra Club com benefícios exclusivos e sem anúncios
      OK