Cifra Club

Exhibition Bout

Sodom

Cifra: Principal (violão e guitarra)
tom: A

  Visit * for more metal tablature
  
Album: Agent Orange

Version 1.0 - 26/7/06

Transcribed By: Ryan
Email:          *


.  - palm mute           /  - slide up to
\  - slide down to       ~  - vibrato
p  - pull off            Suffixes for bend
t  - tap                 f  - full bend    h - half bend
ph - pinched harmonic    q  - quarter bend t - tap bend
*  - see comment         ^  - Hold bend    r release bend
,  - slight palm mute    () - ghost note, sustained note
"  - tremolo note         - Trill


Tuning E A D G B E


|-----| |--------------------------------------------------------|
|-----| |--------------------------------------------------------|
|-----| |--------------------------------------------------------|
|-2-2-| |-2--------------5--------------7--------------5-5-5-----|
|-0-0-| |-0-000000000000-3-000000000000-5-000000000000-2-2-2-000-|
|-----| |--------------------------------------------------------| x6 (x4 after
            ............   ............   ............       ...       chorus)

||------------------------------------------------------------|
||------------------------------------------------------------|
||------------------------------------------------------------|
||------------------------------------------------------------|
||-3---------------------33332222-------------------------3-5-|
||-1-00000000000033332222--------111111111111111111111111-1-3-|
     ....................................................
|------------------------------------------------------------||
|------------------------------------------------------------||
|------------------------------------------------------------||
|--------------------------------------------------------5---||
|-2---------------------33332222666666666666666666666666-2---||
|-0-00000000000033332222-------------------------------------|| x2
    .................................................... (2nd time through keep
                                                          the 6's going on the A
Repeat all of the above x1                                until the verse riff)


|-----------------------------------------------------------------|
|-----------------------------------------------------------------|
|-----------------------------------------------------------------|
|-----------------------------------------------------------------|
|-7---------------------8-8\4-4/5-5---------------------5-5/8-8\7-|
|-5-5-5-5-5-5-5-5-5-5-5-6-6\2-2/3-3-3-3-3-3-3-3-3-3-3-3-3-3/6-6\5-| x4
    . . . . . . . . . .             . . . . . . . . . .

|-------------------------------------------------------------------|
|-------------------------------------------------------------------|
|---------------4th-time-through------------------------------------|
|---------------play-this-ending------------------------------------|
|---------------------------------5---------------3-----------------|
|---------------------------------3-3-3-3-3-3-3-3-1-1-1-1-1-1-1-1---|
                                    . . . . . . .   . . . . . . .

|---| |-----------------------------------------------------------------|
|---| |-----------------------------------------------------------------|
|---| |-----------------------------------------------------------------|
|---| |---------------------0h2p0-0-------------------------------3-----|
|-2-| |-----2-------2-------------1---2-----2-------2-------3-----1---2-|
|-0-| |-0-0-0-0-0-0-0-0-0-0-----------0-0-0-0-0-0-0-0-0-0-0-1---------0-| x2
        . .   . . .   . . .             . .   . . .   . . .

|-----------------------------------------------------------------|
|-----------------------------------------------------------------|
|---------------------0h2p0-0-------------------------------3-----|
|---------------------------1---2-----2-------2-------3-----1---2-|
|-----2-------2-----------------0-0-0-0-0-0-0-0-0-0-0-1---------0-|
|-0-0-0-0-0-0-0-0-0-0---------------------------------------------|
  . .   . . .   . . .             . .   . . .   . . .

|-----------------------------------------------------------------|
|-----------------------------------------------------------------|
|---------------------0h2p0-0-------------------------------3-----|
|-----2-------2-------------1---2-----2-------2-------3-----1---2-|
|-0-0-0-0-0-0-0-0-0-0-----------0-0-0-0-0-0-0-0-0-0-0-1---------0-|
|-----------------------------------------------------------------|
  . .   . . .   . . .             . .   . . .   . . .

|-----------------------------------------------------------------|
|-----------------------------------------------------------------|
|-----------------------------------------------------------------|
|-----2-------2-------0h2p0-0-------------------------------3-----|
|-0-0-0-0-0-0-0-0-0-0-------1---2-----2-------2-------3-----1---2-|
|-------------------------------0-0-0-0-0-0-0-0-0-0-0-1---------0-|
  . .   . . .   . . .             . .   . . .   . . .

|-----------------------------------------------------------------|
|-----------------------------------------------------------------|
|-----------------------------------------------------------------|
|---------------------0h2p0-0-------------------------------3-----|
|-----2-------2-------------1---2-----2-------2-------3-----1---2-|
|-0-0-0-0-0-0-0-0-0-0-----------0-0-0-0-0-0-0-0-0-0-0-1---------0-|
  . .   . . .   . . .             . .   . . .   . . .

|----------------------------|
|----------------------------|
|----------------------------|
|----------------------------|
|-----2----------------------|
|-0-0-0-0-0-0-0-0-0-0-0-0-0-0|
  . .   . . . . . . . . . . .


Riff under solo
||---------------------------------------------------------------|
||---------------------------------------------------------------|
||---------------------------------------------------------------|
||-9------------------------------7------------------------------|
||-7-7777777777777777777777777777-5-5555555555555555555555555555-|
||---------------------------------------------------------------|
     ............................   ............................

|---------------------------------------------------------------|
|---------------------------------------------------------------|
|---------------------------------------------------------------|
|-5--------------7--------------9-------------------------------|
|-3-333333333333-5-555555555555-7-7777777777777777777777777777--|
|---------------------------------------------------------------|
    ............   ............   ............................

|---------------------------------------------------------------|
|---------------------------------------------------------------|
|---------------------------------------------------------------|
|-9------------------------------7------------------------------|
|-7-7777777777777777777777777777-5-5555555555555555555555555555-|
|---------------------------------------------------------------|
    ............................   ............................

|---------------------------------------------------------------||
|---------------------------------------------------------------||
|---------------------------------------------------------------||
|-5--------------7--------------2-------------------------------||
|-3-333333333333-5-555555555555-0-0000000000000000000000000000--||
|---------------------------------------------------------------|| x2
    ............   ............ ^ ............................
                                ^
                                ^ 2nd time through go to >> v
  v 
00:00 / 00:00
Outros vídeos desta música
Repetir
Outros vídeos desta música
Composição de Chris Witchhunter Dudek / Frank Blackfire / Sodom / Tom Angelripper
267 exibições
    • ½ Tom
    • A
    • Bb
    • B
    • C
    • Db
    • D
    • Eb
    • E
    • F
    • F#
    • G
    • Ab
  • Adicionar à lista

    0 comentários

    Ver todos os comentários

    Conseguiu tocar?

    0 Tocaram 0 Ainda não

    Grave um vídeo tocando Exhibition Bout e nos envie!

    00:00 / 00:00

    Cifra Club Pro

    Aproveite o Cifra Club com benefícios exclusivos e sem anúncios
    Cifra Club Pro
    Aproveite o Cifra Club com benefícios exclusivos e sem anúncios
    OK