Cifra Club

Strangler

Soilwork

Tab de baixo: Principal
Selo Cifra Club: esta cifra foi revisada para atender aos critérios oficiais da nossa Equipe de Qualidade.
Tuning: B E A D

Chorus (0:10) 
D |-------------------------------------------|
A |--9p7------------------9p7-----------------|
E |------9p7-------7h9--------9p7-------------|
B |----------777-8-----00---------8888-7-000--|

D |------------------------------------------------------|
A |--9p7------------------9999-10-10-10-10--10-10-12-12--|
E |------9p7-------7h9-----------------------------------|
B |----------777-8-----00--------------------------------|

Verse (0:31)
D |-----------------------------------------|
A |-----------------------------------------|
E |--7h9------7h9------7h9------7h9---------|
B |------0-00-----0-00-----0-00-----0-3333--|

D |--------------------------------------------------|
A |--------------------------------------------------|
E |--7h9------7h9------7h9------5-7-9-7-10-10-10-10--|
B |------0-00-----0-00-----0-00----------------------|

Pre Chorus (0:52)
D |---------------------------------|
A |---------------------------------|
E |--9----9-------9-----------------|
B |-----00----00-5~----00-5~-7~-8~--|

Chorus (1:03)
Verse (1:25)
Pre Chorus (1:46)
Chorus (1:57)

Breakdown (2:18)
D |-----------------------|
A |-----------------------|
E |-----------------------|
B |--00-0-0-00-00-0-0-00--|

Heavy Riff (2:28)
D |------------------------------------------|
A |------------------------------------------|
E |------------------------------------------|
B |--5p3-5p3-5p3-5p3-777-5p3-5p3-5p3-5p3-2~--|

Solo (2:39)
D |---------------------------|
A |---------------------------|
E |----3-2---3-2---3-2---2-0--|
B |--3-----3-----3-----2------|

Chorus (3:11)
Verse (3:32

Ending (3:42)
D |---------------------|
A |--9-7----7-----------|
E |------10---10-9-7----|
B |------------------0--|
Outros vídeos desta música
    29 exibições

    Afinação da cifra

    Afinador online

    0 comentários

    Ver todos os comentários

    Entre para o Cifra Club PRO

    Tenha acesso a benefícios exclusivos no App e no Site

    • Chega de anúncios

    • Badges exclusivas

    • Mais recursos no app do Afinador

    • Atendimento Prioritário

    • Aumente seu limite de lista

    • Ajude a produzir mais conteúdo

    Cifra Club Pro

    Aproveite o Cifra Club com benefícios exclusivos e sem anúncios
    Cifra Club Pro
    Aproveite o Cifra Club com benefícios exclusivos e sem anúncios
    Ops (: Contenido disponible sólo en portugués.
    OK