Enviar cifraEntrar

Rasta Courage

SOJA

Cifra: Principal
exibições 217.658
Tom: F
(A# Dm C Dm)
 
Try and remember now just what has been done.  
Enslavement, displacement of every nation.  
And now to one nation, everyone hold their grudge.  
Kind of makes me wonder about which side I'm on.  
I don't defend white, and I don't defend black.  
I defend truth and rights and all of that.  
I work on situations where I'm at  
Hold my position and never fall of track.  
 
Nah give up my faith!  
Though Babylon rage,             2x
I and I will strive until  
the end of my days.  
rasta courage
go against society, Rasta courage.  
 
 I never give no good vibes  
and I never give up no truth.  
Never trade my sanity for living in Babylon crew.  
Vanity will never drive this man insane.  
This man will walk alongside Jah again.  
We see all of the pressure to conform today,  
And I may sometimes bend,  
but only as not to break.  
ïCause a life of iniquity for laziness' sake  
Is a deal with the devil Rasta just can't make.  
 
refrão 2x

 Looking back now upon all of the evidence  
400 years and what those years have  
really done, we talk of peace but at the  
first sign of war. Bredren and bredren and  
sistren ain't sistren no more. Without forgiveness  
how will any war cease, while the heathen rage  
Rastaman sitting at ease. No one will move a  
muscle for some moral justice
And whit no justice ther will be no peace  

refrão 2x
3º parte e acaba

(Solo)


E|-------------------------------------------------------------------------------------|
B|-10/12--12\10--10-10\9--9------------------9--9\7---7\5------------------------------|
G|--------------------------9-9-9-11-11\9--9--------9-----6----------------------------|
D|-------------------------------------------------------------------------------------|
A|-------------------------------------------------------------------------------------|
E|-------------------------------------------------------------------------------------|


E|-------------------------------------------------------------------------------------|
B|-10/12--12\10--10-10\9---9\7--7-7-7-7h9-7--9-9\7--2--5-5\4--0h2--5/7--5------2-------|
G|-------------------------------------------------------------------------------------|
D|-------------------------------------------------------------------------------------|
A|-------------------------------------------------------------------------------------|
E|-------------------------------------------------------------------------------------|


E|-------------------------------------------------------------------------------------|
B|--0-0h2---5-5/7--5-----2---0-0h2--5/7--5-----2--------0-0h2---5\2--5/7---5\2--0---5--|
G|-------------------------------------------------------------------------------------|
D|-------------------------------------------------------------------------------------|
A|-------------------------------------------------------------------------------------|
E|-------------------------------------------------------------------------------------|
  • 1
  • 2
  • 3
  • 4
  • 5
  • 6
  • 7
  • 8
  • 9
  • 10
  • 11
  • 12
    Acordes para:
      Composição: Jacob HemphillColaboração e revisão:

      0 comentários

        mostrar mais comentários

        Conseguiu tocar?

        34tocaram0ainda não

        Grave um vídeo tocando Rasta Courage e mande pra gente!

        00:00 / 00:00
        outros vídeos desta música
        repetirqualidadeautomática
        • automática
        Outro vídeos desta música
          00:00 / 00:00
          automática
          • automática
          Acordes para:violão e guitarra
          dificuldadeexibiçõescontribuições
          1 versão de Tab de baixoexibiçõescontribuições
          fecharplay/pause subir/descer velocidade
            acordes
            fechar
            OK
            Feedback