Cifra Club

I Thought I Was An Alien

Soko

Cifra: Principal (violão e guitarra)
tom: G
Riff simples:

     D               G               D - continua
E|--------2-----2---------3-----3-----------------------------|
B|----------3-----3---------3-----3---------------------------|
G|----2-------2-------0-------0-------------------------------|
D|--0---0---------------0-------------------------------------|
A|------------------------------------------------------------|
E|------------------3-----------------------------------------|


Solo opção 1:

E|--------------14-----------------------12-12-12-12-12-------|
B|-----15-15-------15----15-----15-15-------------------15----|
G|--14-------14-------14-----12-------12----------------------|
D|------------------------------------------------------------|
A|------------------------------------------------------------|
E|------------------------------------------------------------|

Solo opção 2:

E|-----------2-----------------0-0-0-0-0----------------------|
B|----3-3------3---3-----3-3-------------3--------------------|
G|--2-----2------2-----0-----0--------------------------------|
D|------------------------------------------------------------|
A|------------------------------------------------------------|
E|------------------------------------------------------------|                      

Intro: Riff

   D       G          D                G
We met one day when I thought I was an alien
      D             G           D                     G
I told you to get a costume and dance with me like an alien

Solo 2x: ( D G D G )

    D                G                     D       G
You told me that you were not quite a good dancer
  D            G                   D        G
I told you that I think it doesn't matter
   F#              G*
We would just look dumber than we think we were    

Solo 2x: ( D G D G )

F#                 G
Then you looked at me as if I was a freak
F#               G
But you said you like freaky people
F#               G
So I thought you might like me a little bit       

Solo 2x: ( D G D G )

   D       G          D                G
We met one day when I thought I was an alien
      D             G           D                     G
I told you to get a costume and dance with me like an alien
        D    G
And you did
        D    G
And you did

Solo 4x:( D G D G )
00:00 / 00:00
Outros vídeos desta música
Repetir
Outros vídeos desta música
Compositor não encontrado.
Colaboração e revisão:
  • marya bairro)
831 exibições
    • ½ Tom
    • A
    • Bb
    • B
    • C
    • Db
    • D
    • Eb
    • E
    • F
    • F#
    • G
    • Ab
  • Adicionar à lista

    0 comentários

    Ver todos os comentários

    Conseguiu tocar?

    2 Tocaram 0 Ainda não

    Grave um vídeo tocando I Thought I Was An Alien e nos envie!

    Entre para oCifra Club PRO

    Tenha acesso a benefícios exclusivos no App e no Site

    • Chega de anúncios

    • Prioridade de compra em lançamentos

    • Mais recursos no app do Afinador

    • Atendimento Prioritário

    • Descontos nos produtos Cifra Club

    • Ajude a produzir mais conteúdo

    00:00 / 00:00

    Cifra Club Pro

    Aproveite o Cifra Club com benefícios exclusivos e sem anúncios
    Cifra Club Pro
    Aproveite o Cifra Club com benefícios exclusivos e sem anúncios
    OK