Cifra Club

Aprenda

Sunday

Sonic Youth

Cifra: Principal (violão e guitarra)
tom: B
        Eu acho que essa música é tocada com um outra afinação,
        mas é possível tocá-la apenas trocando a sexta corda por D.
        Portanto: DADGBE

Intro:
Parte A                                                                         
G---------------------------------------|--------------------------------------|
D---------5-----------------5-----------|--------8-----------------8-----------|
A------3-----3--4~~~-----3-----3--4~~~--|-----6-----6--7~~~-----6-----6--7~~~--|
D---3-----------------3-----------------|--6-----------------6-----------------|

G---------------------------------------|--------------------------------------|
D---------5-----------------5-----------|--------8-----------------8-----------|
A------3-----3--4~~~-----3-----3--4~~~--|-----6-----6--7~~~-----6-----6--7~~~--|
D---3-----------------3-----------------|--6-----------------6-----------------|

Acordes parte A                                                                           
E-8---|--6--|--1--|--4--|
B-8---|--6--|--1--|--4--|
G-10--|--8--|--3--|--6--|
D-10--|--8--|--3--|--6--|
A-8---|--6--|--1--|--4--|
D-8---|--6--|--1--|--4--|

Intro:
Parte B
G---------------------------------------|-----------------------------------------|
D---------5-----------------5-----------|--------8--------------------8-----------|
A------3-----3--4~~~-----3-----3--4~~~--|-----6-----6-----7~~~-----6-----6--7~~~--|
D---3-----------------3-----------------|--6-----------6--------6-----------------|

G------------------------------------------|-------------------------------------------|
D---------5--------------------5-----------|--------10--------------------10-----------|
A------3-----3-----4~~~-----3-----3--4~~~--|-----8------8-----9~~~-----8------8--9~~~--|
D---3-----------3--------3-----------------|--8------------8--------8------------------|

Acordes pate B
E-9---|--6--|--3--|
B-9---|--6--|--3--|
G-11--|--8--|--5--|
D-11--|--8--|--5--|
A-9---|--6--|--3--|
D-9---|--6--|--3--|

Primeira Parte
 C/F  D#/A#
E-3--|--6--|
B-3--|--6--|
G-5--|--8--|
D-5--|--8--|
A-3--|--6--|
D-3--|--6--|

C/F
SUNDAY COMES ALONE AGAIN

A PERFECT DAY FOR A QUIET FRIEND
    D#/A#                   C/F
AND YOU - YOU WILL SET IT FREE

I SEE NEW MORNING ROUND YR FACE

EVERYBODY SEZ ITS ANOTHER PHASE
    D#/A#                 C/F
AND NOW - NOW ITS COME TO ME

SEE THE MAGIC IN YR EYES

I SEE IT COME AS NO SURPRISE
    D#/A#                   C/F
AND YOU - YOU TURN YR EYES AWAY
    D#/A#                  C/F
YEH YOU - YOU TURN IT ALL AWAY

I GUESS ITS TRUE ITS NEVER TOO LATE

STILL I DON'T KNOW WHAT TO DO TODAY
   D#/A#                   C/F
OH WHY - CAN'T I SET YOU FREE
     D#/A#                 C/F
WILL YOU - DO THE SAME FOR ME
-------------------------------------
Solo:

 C/F  D#/A#  F/C   C/F
E-3--|--6--|--8--|--3--|
B-3--|--6--|--8--|--3--|
G-5--|--8--|--10-|--5--|
D-5--|--8--|--10-|--5--|
A-3--|--6--|--8--|--3--|
D-3--|--6--|--8--|--3--| Repete várias vezes

-------------------------------------
C/F
SUNDAY COMES AND SUNDAY GOES

SUNDAY ALWAYS SEEMS TO MOVE SO SLOW
   D#/A#                 C/F
TO ME - HERE SHE COMES AGAIN

A PERFECT ENDING TO A PERFECT DAY

A PERFECT ENDING WHAT CAN I SAY
   D#/A#               C/F
TO YOU - LONELY SUNDAY FRIEND
     D#/Bb              C/F      C/F Até o fim...
WITH YOU - SUNDAY NEVER ENDS
                             


        Cifrado e tablaturado por Jean R.C. de Almeida  

        Outras tab's, Pink Floyd, Sonic Youth, The Breeders...
        Jean R. C. de Almeida.
Composição de Sonic Youth
10.081 exibições
    • ½ Tom
    • A
    • Bb
    • B
    • C
    • Db
    • D
    • Eb
    • E
    • F
    • F#
    • G
    • Ab
  • Adicionar à lista

    0 comentários

    Ver todos os comentários

    Conseguiu tocar?

    2 Tocaram 0 Ainda não

    Grave um vídeo tocando Sunday e nos envie!

    00:00 / 00:00
    outros vídeos desta música
    repetir qualidade Automático
    Outros vídeos desta música
    00:00 / 00:00
    Automático

    Cifra Club Pro

    Aproveite o Cifra Club com benefícios exclusivos e sem anúncios
    Cifra Club Pro
    Aproveite o Cifra Club com benefícios exclusivos e sem anúncios
    OK