Cifra Club

Blind Dogs

Soundgarden

Cifra: Principal
exibições 551
Tom: D
E|-------------------------|
B|-------------------------|
G|-------------------------|
D|-------------3-3---------|
A|---------0-0-----2-------|
E|-5-5-2-1-----------1----0|

E|-x--x--xv---|
B|-x--x--xv---|
G|-x--x--xv---|
D|-x--x--xv---|
A|------------|
E|------------|

Main Riff (play this the whole song except durng solo)
E|--------------------------|
B|--------------------------|
G|--------------------------|
D|-------------5-5----------|
A|---------0-0-----4--------|
E|-7-7-3-2-----------3----0-|

Solo=use tubescreamer &/or chorus type distortion w/ feedback

E|-----------------------------------|
B|-------------------7-8----8b-7-7---|
G|-9-11b-11b---8-8b-7---6-5-8b----6--|
D|---10b-10b-8v--------------------5-|
A|-----------------------------------|
E|-----------------------------------|
Acordes para:

    0 comentários

      mostrar mais comentários

      Conseguiu tocar?

      0tocaram0ainda não

      Grave um vídeo tocando Blind Dogs e mande pra gente!

      00:00 / 00:00
      outros vídeos desta música
      repetirqualidadeautomática
      Outro vídeos desta música
        00:00 / 00:00
        automática
        OK