Cifra Club

Every Pain 2

Stauros

Cifra: Principal (violão e guitarra)
Selo Cifra Club: esta cifra foi revisada para atender aos critérios oficiais da nossa Equipe de Qualidade.
tom: G
/ Em 
 
~ = alavanca 
  / 
 / \  = ligadura 
/   \ 
/\ = palhetada down 
\/ = palhetada up 
$ = Senio 
 
 
              H 
-------------/\---------||------------------------------------------------------------------- 
------------0--2-------.||--------------------------------------------------0---------------- 
-------2----------2-----|| 4X------2---------2---------2-------2--------------2--------2----- 
-----2---2----------2---||-------2---2-----2---2-----2-------2-------2----------2----2---2--- 
--0--------------------.||-----0----------------------------------------0-------------------- 
------------------------||--------------1---------3-------1-------0---------------1---------- 
 
 
 
--------------------------------------------------------------------------------------------- 
-------------0------------------------------------------------------------------------------- 
--------2---------2---------2---------2---------2-------2------------------------------------ 
------2---2-----2---2-----2---2-----2---2-----2-------2-------2------------------------------ 
-----------------------0-----------------------------------------0--------------------------- 
--3------------------------------1---------3-------1-------0--------------------------------- 
 
 
 
 
--------------------------------|-----------------------------------------------0------------ 
--0-----------------------0-----|------3---------3---------3-------3--------------3---------- 
----2---------2----2----2----1--|----2---2-----2---2-----2-------2--------2---------2-------- 
------2-----2---2--2--2------2--|--0--------------------------------------------------------- 
-------------------2---------2--|-----------1---------3-------1-------0------0---------1----- 
---------1---------0---------0--|------------------------------------------------------------ 
 
 
 
 
--------------------0---------|-----------------------------------------------0-------------- 
-----3---------3---------3----|-------3---------3---------3-------3-------------3---------3-- 
---2---2-----2---2-----2---2--|-----2---2-----2---2-----2-------2-------2---------2-----2---2 
------------------------------|--0-----------------------------------------0----------------- 
----------3-------------------|------------1---------3-------1-------0---------------1------- 
------------------------------|-------------------------------------------------------------- 
 
        Chorus I 
                      H                                                P 
--0--||--------------/\-------------------------------||--------------/\--------------------- 
--3--||.------------0--1-----------------------------.||-------------1--0-------------------- 
--2--||--------2----------2---------2-------2---------||----------2-------2--------H-------0- 
--0--||------2---2----------2-----2-------2-------2---|| 3X-----2-----------2-----/\-----2--- 
--3--||.--0------------------------------------------.||------0---------------0--0--2--3----- 
-----||------------------------1-------3-------1------||------------------------------------- 
 
 
          * 
-----------------||---------------------------------------------0----------------0--|-------- 
----------------.||-------3--------3---------3-------3------------3---------3----0--|-------- 
------0----------||-----2---2----2---2-----2-------2-------2--------2-----2---2--2--|-------- 
----0--------0---||--0---------------------------------------0-------------------0--|-------- 
--2-------------.||-----------1---------3-------1-------0--------------1---------3--|-------- 
----------3------||-----------------------------------------------------------------|-------- 
 
 
Chorus II    *       Refrão I                        2X 
 igual-------3--|--------------------|-----0-----0----||-------------------------------------- 
Chorus I-----0--|--------------------|-----0-----0---.||.------------------------------------- 
-------------0--|-----------2-----2--|--0--2-----4----||-----------2-----2-------------------- 
-------------0--|-----/-----2-----2--|--3--3--5--5----||-----/-----2-----2-------------------3 
-------------2--|----/-\----0-----0--|--3-----5------.||.---/-\----0-----0--0-0-0-0----------3 
-------------3--|---0-3-5------2-----|--1-----3-------||---0-3-5------2--------------0-0-1-1-1 
 
 
--------------------------------------------------------------------------------------------- 
--------------------------------------------------------------------------------------------- 
---------------------2-------2--------------------------------------------------------------- 
-----------5----/----2-------2--------------------3--------------/--------------------------- 
-----------5---/-\---0-------0--0-0-0-0-----------3-------------/-\-------------------------- 
--1-1-3-3--3--0-3-5-------2--------------0-0--1-1-1--1-1--3-3--7-/-3------------------------- 
 
                                                                         
||--------------------------------------------------------------------||---------------------- 
||.--------------------H------------------------------------------3--.||---------------------- 
||--------------------/\--------------------P-----------P---------0---||---------------------- 
||----2------2-------0--2--3-----3---------/\---2-2----/\---2-2---0---||-4X------------------- 
||.---2------2-------0--2--3-----3--------3--0--0-0---3--0--0-0------.||---------------------- 
||----0--0-0-0--0-0--------1-1-1-1-1-1-1--------------------------3---||---------------------- 
 
 
 
 
--------------------------------------------------------------------------------------------- 
--Base Solo I igual-------------------------------------------------------------------------- 
------Chorus I------------------------------------------------------------------------------- 
--------------------------------------------------------------------------------------------- 
--------------------------------------------------------------------------------------------- 
--------------------------------------------------------------------------------------------- 
 
 
---Chorus III-igual Chorus II----------------------------------------------------------------- 
---------------------------------------------------------------------------------------------- 
-------Refrão II igual Refrão I--------------------------------------------------------------- 
---------------------------------------------------------------------------------------------- 
---------------Base do solo II igual Refrão I + 3 X a 2ª parte-------------------------------- 
-----------------------------------------------------------------3-3-3--3-3-3-3--3-3-3-3------ 
 
Refrão III 
                                                                                        Fad out 
||---------------------------------------------------------------------3-3-2-2-2-----------||- 
||.--------------------------------------------------------------------3-3-3-3-3----------.||- 
||----2----2-2-2-------------------------------------------------------2---2---------------||- 
||----2----2-2-2-------2-3--2-2---------H---5-5---------H---5-5--------0---0--------/------||- 
||.---0----0-0-0--x-x--2-3--2-2--------/\---5-5--------/\---5-5--------------------/-\----.||- 
||--0---3--------------0-1--0-0--x-x--0--3--3-3--3-3--0--3--3-3--3-3--------------0-3-5----||-
Outros vídeos desta música
    2.512 exibições
      • ½ Tom
      • A
      • Bb
      • B
      • C
      • Db
      • D
      • Eb
      • E
      • F
      • F#
      • G
      • Ab
    • Adicionar à lista

    Afinação da cifra

    Afinador online

      0 comentários

      Ver todos os comentários

      Entre para o Cifra Club PRO

      Tenha acesso a benefícios exclusivos no App e no Site

      • Chega de anúncios

      • Badges exclusivas

      • Mais recursos no app do Afinador

      • Atendimento Prioritário

      • Aumente seu limite de lista

      • Ajude a produzir mais conteúdo

      Cifra Club Pro

      Aproveite o Cifra Club com benefícios exclusivos e sem anúncios
      Cifra Club Pro
      Aproveite o Cifra Club com benefícios exclusivos e sem anúncios
      Ops (: Contenido disponible sólo en portugués.
      OK