Cifra Club

You Don't Deserve

Stauros

Cifra: Principal (violão e guitarra)
tom: A
E||---------------------------|---------0--------------------| 
B||---------0-----------5--6--|-------6----6---------6h5-----| 
G||-------5----5-----7--------|-----7---------7----7-----7h5-| 
D||-----7---------7-----------|--0---------------0-----------| 
A||--0------------------------|------------------------------| 
E||---------------------------|------------------------------| 
 
                                                                   
--------------------------------|---------0----------------------| 
---------0------3h0-------------|-------5----5---6h5-----------5-| 
-------4----4-------4---5h4-----|-----0--------0-----5h0---0h5---| 
-----0--------0-------0-----5h0-|--------------------------------| 
--------------------------------|--3---------------------3-------| 
--3-----------------------------|--------------------------------| 
 
                                                                 
---------0--------3h0-1h0-------|----------------1h0-----------| 
-------1----1-------------3-1h3-|--------3-------3---3-1h0-----| 
-----2--------2-----------------|--------2-----------------2/4-| 
--3-----------------------------|-----3-----3------------------| 
--------------------------------|--2-----------2---------------| 
----------------1---------------|------------------------------| 
 
                                                             
--------0----------------------|---------------------------| 
-----0-----0-------------------|---------0-----------5--6--| 
--4----------4---5h4-----------|-------5----5-----7--------| 
---------------------6h0-------|-----7---------7-----------| 
-------------------------7-----|--0------------------------| 
--0------------0-----------5/4-|---------------------------| 
 
                                                              
---------0--------------------|--------------------------------| 
-------6----6---------6h5-----|---------0------3h0-------------| 
-----7---------7----7-----7h5-|-------4----4-------4---5h4-----| 
--0---------------0-----------|-----0--------0-------0-----5h0-| 
------------------------------|--------------------------------| 
------------------------------|--3-----------------------------| 
 
                                                                   
---------0----------------------|---------0--------3h0-1h0-------| 
-------5----5---6h5-----------5-|-------1----1-------------3-1h3-| 
-----0--------0-----5h0---0h5---|-----2--------2-----------------| 
--------------------------------|--3-----------------------------| 
--3---------------------3-------|--------------------------------| 
--------------------------------|----------------1---------------| 
 
                                                                             
----------------1h0-----------|--------0-----------------------------------| 
--------3-------3---3-1h0-----|-----0-----0--------------------------------| 
--------2-----------------2/4-|--4------------------7-9-10---------9-10-12-| 
-----3-----3------------------|--------------7-9-10--------9-10-12---------| 
--2-----------2---------------|--------------------------------------------| 
------------------------------|--0-----------0-----------------------------| 
 
                                                                     
--12----------12--13------13h12-|----------------------------------| 
------10--13--------------------|--15------15/-20--17----------10--| 
--------------------------------|------12--------------19--17------| 
--------------------------------|----------------------------------| 
--------------------------------|----------------------------------| 
--------------------------------|----------------------------------| 
 
                                                                   
--12----------12--13------13h12-|--------------------------------| 
------10--13--------------------|--15------15/-20--17------------| 
--------------------------------|------12--------------19--17----| 
--------------------------------|--------------------------------| 
--------------------------------|--------------------------------| 
--------------------------------|--------------------------------| 
 
                                                    
--17----17-19-20h19h17----17----------------------| 
-----17----------------20----20-18-17-18h17-------| 
--------------------------------------------19-17-| 
--------------------------------------------------| 
--------------------------------------------------| 
--------------------------------------------------| 
 
                                              
--15----15-17-19h17h15-------------15-------| 
-----15----------------15-17-15-17----17----| 
--------------------------------------------| 
--------------------------------------------| 
--------------------------------------------| 
--------------------------------------------| 
 
                                                    
--17----17-19-20h19h17----17----------------------| 
-----17----------------20----20-18-17-18h17-------| 
--------------------------------------------19-17-| 
--------------------------------------------------| 
--------------------------------------------------| 
--------------------------------------------------| 
 
                                                                    
--15----15-17-19h17h15-------------15-------|---------------------| 
-----15----------------15-17-15-17----17----|--10~----------------| 
--------------------------------------------|----------------9----| 
--------------------------------------------|---------------------| 
--------------------------------------------|---------------------| 
--------------------------------------------|---------------------| 
 
                                                                              
--------------------|------------------12----|--12b-----12r-10--------------| 
--------------------|--10~---------10--------|------------------13--12--10--| 
--10~---------------|------------------------|------------------------------| 
--------------------|------------------------|------------------------------| 
--------------------|------------------------|------------------------------| 
--------------------|------------------------|------------------------------| 
 
                                                                    
---------------------|-------------------|------------------12----| 
--10~----------------|-------------------|--10~---------10--------| 
----------------9----|--9~---------------|------------------------| 
---------------------|-------------------|------------------------| 
---------------------|-------------------|------------------------| 
---------------------|-------------------|------------------------| 
 
                                                               
--12b-----12r-10--------------|--12r------10-10--------------| 
------------------13--12--10--|------------------13--12------| 
------------------------------|--------------------------12--| 
------------------------------|------------------------------| 
------------------------------|------------------------------| 
------------------------------|------------------------------| 
 
                                                                 
----------12h15h12--------------|--12b------10-10--------------| 
--15b---------------15--13------|------------------13--12------| 
----------------------------14--|--------------------------12--| 
--------------------------------|------------------------------| 
--------------------------------|------------------------------| 
--------------------------------|------------------------------| 
 
                                                            
----------12h13h12--------------|---------------------------| 
--15b---------------15--13------|--13r------12-12--10--9----| 
----------------------------14--|---------------------------| 
--------------------------------|---------------------------| 
--------------------------------|---------------------------| 
--------------------------------|---------------------------| 
 
 
                                                                   
--------------------------------------------------------10-12-13-| 
--------------------------------------10-12-13-10-12-13----------| 
-----------------------7-9-10-9-10-12----------------------------| 
---------7-9-10-7-9-10-------------------------------------------| 
--7-8-10---------------------------------------------------------| 
-----------------------------------------------------------------| 
 
 
                                                                     
--12----------12--13------13h12-|----------------------------------| 
------10--13--------------------|--15------15/-20--17----------10--| 
--------------------------------|------12--------------19--17------| 
--------------------------------|----------------------------------| 
--------------------------------|----------------------------------| 
--------------------------------|----------------------------------| 
 
 
                                                                   
--12----------12--13------13h12-|--------------------------------| 
------10--13--------------------|--15------15/-20--17------------| 
--------------------------------|------12--------------19--17----| 
--------------------------------|--------------------------------| 
--------------------------------|--------------------------------| 
--------------------------------|--------------------------------| 
 
 
                                                    
--17----17-19-20h19h17----17----------------------| 
-----17----------------20----20-18-17-18h17-------| 
--------------------------------------------19-17-| 
--------------------------------------------------| 
--------------------------------------------------| 
--------------------------------------------------| 
 
 
                                              
--15----15-17-19h17h15-------------15-------| 
-----15----------------15-17-15-17----17----| 
--------------------------------------------| 
--------------------------------------------| 
--------------------------------------------| 
--------------------------------------------| 
 
 
                                                    
--17----17-19-20h19h17----17----------------------| 
-----17----------------20----20-18-17-18h17-------| 
--------------------------------------------19-17-| 
--------------------------------------------------| 
--------------------------------------------------| 
--------------------------------------------------| 
 
 
                                                                     
--15----15-17-19h17h15-------------15-------|----------------------| 
-----15----------------15-17-15-17----17----|--10--------------12r-| 
--------------------------------------------|----------------------| 
--------------------------------------------|----------------------| 
--------------------------------------------|----------------------| 
--------------------------------------------|----------------------| 
 
 
                                                                 
----------------------------------------|----------------------| 
--12----12r-10--------------------------|----------------------| 
---------------12h10h9h10h12h10h9-------|--------9b-9------7/5-| 
----------------------------------------|----------------------| 
----------------------------------------|----------------------| 
----------------------------------------|----------------------| 
 
 
                        
----------------------| 
----------------------| 
--5------4/2-2--------| 
----------------------| 
----------------------| 
----------------------| 
 
 
                                                                
-------0h8h12-17t12h8h0h5h7h8-12t8h7h5h0h5h7h8-10t8h7h5h0-----| 
----------------------------------------------------------6h8h| 
--------------------------------------------------------------| 
--------------------------------------------------------------| 
--------------------------------------------------------------| 
--------------------------------------------------------------| 
 
 
                                                                                 
--------------------|---------------------------------|------------------------| 
--10/---------------|--------12r-----12b12h10---------|------------------------| 
--------------------|-------------------------12h10h9-|--10b-----10h9-7--------| 
--------------------|---------------------------------|------------------------| 
--------------------|---------------------------------|------------------------| 
--------------------|---------------------------------|------------------------| 
 
 
                                                                 
--12r------10-10--------------|----------12h15h12--------------| 
------------------13--12------|--15b---------------15--13------| 
--------------------------12--|----------------------------14--| 
------------------------------|--------------------------------| 
------------------------------|--------------------------------| 
------------------------------|--------------------------------| 
 
 
                                                                 
--12b------10-10--------------|----------12h13h12--------------| 
------------------13--12------|--15b---------------15--13------| 
--------------------------12--|----------------------------14--| 
------------------------------|--------------------------------| 
------------------------------|--------------------------------| 
------------------------------|--------------------------------| 
 
 
                             
---------------------------| 
--13r------12-12--10--9----| 
---------------------------| 
---------------------------| 
---------------------------| 
---------------------------| 
 
 
                                                                                 
-------------------------------------------------------------------------------- 
--------------------------------------------------------------------------12-13- 
---------------------------------------------------9-10-12-14-12-10-12-14------- 
------------------------------7-9-10-12-10-9-10-12------------------------------ 
------------5-7-8-10-8-7-8-10--------------------------------------------------- 
--8-7-5-7-8--------------------------------------------------------------------- 
 
 
                                                                           
||---12-10-8---------------8---------10----------10-12-13-12-10----------| 
||-----------12-10-8-10-12---12-10-8----10-12-13----------------13-12-10-| 
||*----------------------------------------------------------------------| 
||*----------------------------------------------------------------------| 
||-----------------------------------------------------------------------| 
||-----------------------------------------------------------------------| 
 
 
                                                               
--10-8-7-------------7--------8---------8-10-12-10-8---------| 
---------10-8-6-8-10---10-8-6---8-10-12--------------12-10-8-| 
-------------------------------------------------------------| 
-------------------------------------------------------------| 
-------------------------------------------------------------| 
-------------------------------------------------------------| 
 
 
                                                                        
--12-10-8---------------8---------10----------10-12-13-12-10----------| 
----------12-10-8-10-12---12-10-8----10-12-13----------------13-12-10-| 
----------------------------------------------------------------------| 
----------------------------------------------------------------------| 
----------------------------------------------------------------------| 
----------------------------------------------------------------------| 
 
 
                                                                 
--10-8-7-------------7--------8---------8-10-12-10-8----------|| 
---------10-8-6-8-10---10-8-6---8-10-12--------------12-10-8--|| 
-------------------------------------------------------------*|| 
-------------------------------------------------------------*|| 
--------------------------------------------------------------|| 
--------------------------------------------------------------|| 
 
 
                                                                     
--12----------12--13------13h12-|----------------------------------| 
------10--13--------------------|--15------15/-20--17----------10--| 
--------------------------------|------12--------------19--17------| 
--------------------------------|----------------------------------| 
--------------------------------|----------------------------------| 
--------------------------------|----------------------------------| 
 
 
                                                                   
--12----------12--13------13h12-|--------------------------------| 
------10--13--------------------|--15------15/-20--17------------| 
--------------------------------|------12--------------19--17----| 
--------------------------------|--------------------------------| 
--------------------------------|--------------------------------| 
--------------------------------|--------------------------------| 
 
 
                                                    
--17----17-19-20h19h17----17----------------------| 
-----17----------------20----20-18-17-18h17-------| 
--------------------------------------------19-17-| 
--------------------------------------------------| 
--------------------------------------------------| 
--------------------------------------------------| 
 
 
                                              
--15----15-17-19h17h15-------------15-------| 
-----15----------------15-17-15-17----17----| 
--------------------------------------------| 
--------------------------------------------| 
--------------------------------------------| 
--------------------------------------------| 
 
 
                                                    
--17----17-19-20h19h17----17----------------------| 
-----17----------------20----20-18-17-18h17-------| 
--------------------------------------------19-17-| 
--------------------------------------------------| 
--------------------------------------------------| 
--------------------------------------------------| 
 
 
                                                                         
--15----15-17-19h17h15-------------15-------|--------------------10-12-| 
-----15----------------15-17-15-17----17----|--10-------------10-------| 
--------------------------------------------|--------------------------| 
--------------------------------------------|--------------------------| 
--------------------------------------------|--------------------------| 
--------------------------------------------|--------------------------| 
 
 
                                                                     
---12b--------------|----7r---5--7---------|-----------------------| 
--------------------|-------------------5--|--5--------------------| 
--------------------|----------------------|---------5--5/-4----2--| 
--------------------|----------------------|-----------------------| 
--------------------|----------------------|-----------------------| 
--------------------|----------------------|-----------------------| 
 
 
                                                                         
------------------|---------------------------|----------12--12~-------| 
------------------|---------10-12-10b-----10b-|--10r-------------------| 
------------------|-------9-------------------|------------------------| 
------------------|---------------------------|------------------------| 
------------------|---------------------------|------------------------| 
------------------|---------------------------|------------------------| 
 
 
                                                              
-------5--7--7r-----5--|--5---------------------------------| 
----5------------------|-----5------6h5---------------------| 
-----------------------|----------------7h5h4h5h7h5h4h2-----| 
-----------------------|--------------------------------5h3h| 
-----------------------|------------------------------------| 
-----------------------|------------------------------------| 
 
 
                                                                 
-----------------------------------|---------------------------| 
-----------------------------------|---------------------------| 
-----------------------------------|--------------2------------| 
--2h-------3h5h3h2h----------------|--------2h3h5--------------| 
-------------------5h3h2h----------|--2h3h5--------------------| 
-------------------------5h3h1h3h5-|---------------------------| 
 
 
                                                                        
-------------------------|------------------------|------------------|| 
--------------10---------|--12h---10----12~-------|------------------|| 
--9----10h-9--------9----|------------------------|------------------|| 
-------------------------|------------------------|------------------|| 
-------------------------|------------------------|------------------|| 
-------------------------|------------------------|------------------||
00:00 / 00:00
Outros vídeos desta música
Repetir
Outros vídeos desta música
Composição de stauros
Colaboração e revisão:
  • Junior Jr
1.823 exibições
    • ½ Tom
    • A
    • Bb
    • B
    • C
    • Db
    • D
    • Eb
    • E
    • F
    • F#
    • G
    • Ab
  • Adicionar à lista

    0 comentários

    Ver todos os comentários

    Entre para oCifra Club PRO

    Tenha acesso a benefícios exclusivos no App e no Site

    • Chega de anúncios

    • Prioridade de compra em lançamentos

    • Mais recursos no app do Afinador

    • Atendimento Prioritário

    • Descontos nos produtos Cifra Club

    • Ajude a produzir mais conteúdo

    00:00 / 00:00

    Cifra Club Pro

    Aproveite o Cifra Club com benefícios exclusivos e sem anúncios
    Cifra Club Pro
    Aproveite o Cifra Club com benefícios exclusivos e sem anúncios
    OK