Cifra Club

Here At The Western World

Steely Dan

Cifra: Principal (violão e guitarra)
tom: A
Intro : 
--------- 
 
   A          C#m7               A                D 
E|--0-----2----4---2--0---2---4------5---5/7---4---3---2-------| 
B|--2-----4----5---4--2---4---5------7---7/9---5---5---3-------| 
G|-------------------------------------------------------------| 
D|-------------------------------------------------------------| 
A|-------------------------------------------------------------| 
E|-------------------------------------------------------------| 
 
    F#m   F#m11     A/D     E/A   Bm7 
E|----2----0---------9--------------------------------------------| 
B|----2----0------------10----9-----7-----------------------------| 
G|----2----2------------------9-----7-----------------------------| 
D|----4----4---------0--------9-----7-----------------------------| 
A|----4----4------------------0-----------------------------------| 
E|----2----2------------------------7-----------------------------| 
 
     
Use your thumb for the lowest note 
 
Verse 1: 
--------- 
 
C#m11       Bm11      Gmaj7     F#m11 
Down at the Lido they welcome you 
     G           Bm7 
with sausage and beer. 
C#m11        Bm11      Gmaj7        F#m11 
Klaus and Maruska have been there, too. 
    Bm7        D/G             E/A 
But lately he spends his time here. 
 
little riff : 
 
E|---9--------7--------------------------| 
B|-----10-------9------------------------| 
G|--------11------9----------------------| 
D|---------------------------------------| 
A|---------------------------------------| 
E|---------------------------------------| 
 
D 
Hanging with the Mayor and all his friends, 
           A      B/A   E/A*   B/A    A 
and nobody cares. 
D 
As the sailor shuts out the sunrise 
                    A   E/A*    A   E/A*    A 
blacked out on the stairs. 
 
Chorus : 
--------- 
 
C#m7         F#m 
Knock twice, rap with your cane. 
C#m7               F#m 
Feels nice, you're out of the rain. 
E            D           E/D   Dmaj7 
We've got your skinny girl, 
G           Bm7      A 
here at the Western World. 
 
(Repeat Intro) 
 
Verse 2: 
--------- 
 
Ruthie will give you the silver key 
that opens the red door. 
Put down your jack, son and you will see 
the sweetness you've been crying for. 
 
In the night you hide from the madman 
you're longing to be. 
But it all comes out on the inside 
eventually. 
 
Chorus : 
--------- 
 
Knock twice, rap with your cane. 
Feels nice, you're out of the rain. 
We've got your skinny girl, 
here at the Western World. 
 
Solo : 
------ 
 
F#m7   B   F#m7   B   F#m7   B   F#m7   B 
 
G   A/G   G   A/G   A   B/A   A 
 
Then play the little riff - and back into a repeat of an earlier 
bit : 
 
In the night you hide from the madman 
you're longing to be. 
But it all comes out on the inside 
eventually. 
 
Then play another chorus, followed by : 
 
   A          C#m7               A                D 
E|--0-----2----4---2--0---2---4------5---5/7---4---3---2-------| 
B|--2-----4----5---4--2---4---5------7---7/9---5---5---3-------| 
G|-------------------------------------------------------------| 
D|-------------------------------------------------------------| 
A|-------------------------------------------------------------| 
E|-------------------------------------------------------------| 
 
    F#m   F#m11 
E|----2----0------------------------------------------------| 
B|----2----0------------------------------------------------| 
G|----2----2------------------------------------------------| 
D|----4----4------------------------------------------------| 
A|----4----4------------------------------------------------| 
E|----2----2------------------------------------------------|
Composição de Donald Fagen / Walter Becker
588 exibições
    • ½ Tom
    • A
    • Bb
    • B
    • C
    • Db
    • D
    • Eb
    • E
    • F
    • F#
    • G
    • Ab
  • Adicionar à lista

    0 comentários

    Ver todos os comentários

    Conseguiu tocar?

    0 Tocaram 0 Ainda não

    Grave um vídeo tocando Here At The Western World e nos envie!

    00:00 / 00:00
    Outros vídeos desta música
    Repetir Qualidade Automático
    Outros vídeos desta música
    00:00 / 00:00
    Automático

    Cifra Club Pro

    Aproveite o Cifra Club com benefícios exclusivos e sem anúncios
    Cifra Club Pro
    Aproveite o Cifra Club com benefícios exclusivos e sem anúncios
    OK