Cifra Club

Rain

Steve Conte

Cifra: Principal (violão e guitarra)
Selo Cifra Club: esta cifra foi revisada para atender aos critérios oficiais da nossa Equipe de Qualidade.
tom: Fm
E|--12--12--12--12---12--12--12--12---12--12---9---9---5--5--5--5---|
B|--12--12--12--12---12--12--12--12---10--10--10--10---5--5--5--5---|
G|--13--13--13--13---12--12--12--12----9---9---9---9---6--6--6--6---|
D|------------------------------------------------------------------|
A|------------------------------------------------------------------|
E|------------------------------------------------------------------|

Chorus :

E|--0--0-----------4--4--1--0-----6--4---3--3-3-----|
B|--1--0--5--2-----5--4--1--1-----8--4---4--3-3-----|
G|--2--1--5--4-----6--5--1--0-----8--5---5--5-4-----|
D|--3--0--4--4-----6--6--3--2-----8--6---5--5-5-----|
A|--3--2-----------4--6--3--3-----6--6---3--3-3-----|
E|---------------------4--1-----------4--------------|

Watch the video to get the strumming pattern

Second Verse :

E|--12--12--12--12---12--12-----------------12--12---9---9---5--5--5---|
B|--12--12--12--12---12--12-----------------10--10--10--10---5--5--5---|
G|--13--13--13--13---12--12------------------9---9---9---9---6--6--6---|
D|---------------------------------------------------------------------|
A|---------------------------------------------------------------------|
E|----------------------------0-2-3-3-2-0------------------------------|

E|----------------|
B|----------------|
G|----------------|
D|----------------|
A|--0-2-3-5-7-7---|
E|----------------|

-Chorus repeat-

-Strummed version of First Verse-

End part :

E|--5--5--5--5---4--4--4--4---5--5--5--5---4--4--4--4---4---4---1---|
B|--5--5--5--5---5--5--5--5---5--5--7--7---5--5--5--5---5---4---1---|
G|--5--5--5--5---4--4--4--4---5--5--5--5---4--4--4--4---6---5---1---|
D|------------------------------------------------------6---6---3---|
A|------------------------------------------------------4---6---3---|
E|----------------------------------------------------------4---1---|

E|--0---6---4---3--3-3----|
B|--1---8---4---4--3-3----|
G|--0---8---5---5--5-4----|
D|--2---8---6---5--5-5----|
A|--3---6---6---3--3-3----|
E|----------4-------------|
Outros vídeos desta música
    48 exibições
      • ½ Tom
      • Am
      • Bbm
      • Bm
      • Cm
      • C#m
      • Dm
      • Ebm
      • Em
      • Fm
      • F#m
      • Gm
      • G#m
    • Adicionar à lista

    Afinação da cifra

    Afinador online

      0 comentários

      Ver todos os comentários

      Entre para o Cifra Club PRO

      Tenha acesso a benefícios exclusivos no App e no Site

      • Chega de anúncios

      • Badges exclusivas

      • Mais recursos no app do Afinador

      • Atendimento Prioritário

      • Aumente seu limite de lista

      • Ajude a produzir mais conteúdo

      Cifra Club Pro

      Aproveite o Cifra Club com benefícios exclusivos e sem anúncios
      Cifra Club Pro
      Aproveite o Cifra Club com benefícios exclusivos e sem anúncios
      OK