Cifra Club

Aprenda

Hand on Heart

Steve Vai

Cifra: Principal (violão e guitarra)
Já pensou em usar uma coleção de roupas do Cifra Club? Responda as perguntas abaixo e nos ajude nessa missão! →
tom: E
e------------------------------------------------------------------------------------------------
B---12b(14)(14)r(12)-11-11h12-----11b(12)r-9----9-9h11~~~~---------------------------/9-11p9------
G--------------------------------------------11------------9h11-11-11-13/15\9-8--------------11\8/11
D-11----------------------------11----------------------------------------------11-9-------------
A------------------------------------------------------------------------------------------------
E------------------------------------------------------------------------------------------------

e------------------------------------------------------------------------------------------------
B----12b(14)(14)r(12)-11h12p11h12----11b(12)r-9----9-9h11\10/11--------------------------/9-11p9-------
G-----------------------------------------------11--------------9h11-11-11-13/15\9-8------------11\8/11
D-11------------------------------11-------------------------------------------------11-9--------------
A------------------------------------------------------------------------------------------------
E------------------------------------------------------------------------------------------------

e------------------------------------------------------------------------------------------------
B----12b(14)(14)r(12)-11h12-12H------11b(12)r-9----9-9h11p9h11p9h11------------------------------
G-----------------------------------------------11------------------9h11-11-11H-13/15\9-8--------
D-11------------------------------11------------------------------------------------------11-----
A------------------------------------------------------------------------------------------------
E------------------------------------------------------------------------------------------------

e--------------------12-11----11-----------12-11----11--------------
B---9-11Hp9----------------14----12-12/14--------14----12-12/14-----
G-----------9\8/11--------------------------------------------------
D-9-----------------------------------------------------------------
A-------------------------------------------------------------------
E-------------------------------------------------------------------

e---------------------------------------------------------------------------------9--11--12~~...-
B-------------9-9--11-11--------------9-12p11p9----9----------------9-9--11-11-------------------
G-------11-11-------------------11-11-----------11---11-------11-11------------11----------------
D-11-11-------------------11-11-------------------------11-11------------------------------------
A------------------------------------------------------------------------------------------------
E------------------------------------------------------------------------------------------------

e------------------------------------------------------------------------------------------------
B-12-11-9---------------------------------------------------------------------------------------------
G---------11-9h11--------------------------------------------------------------------------------------
D------------------11-9-----------------------------------------------------------------------------
A-----------------------11-9-11/\/\/\/\-9-11H---.....------------------------------------------------------------------
E------------------------------------------------------------------------------------------------

Composição de Steve Vai
Colaboração e revisão:
  • Luis Gustavo
9.068 exibições
    • ½ Tom
    • A
    • Bb
    • B
    • C
    • Db
    • D
    • Eb
    • E
    • F
    • F#
    • G
    • Ab
  • Adicionar à lista

    0 comentários

    Ver todos os comentários

    Conseguiu tocar?

    0 Tocaram 0 Ainda não

    Grave um vídeo tocando Hand on Heart e nos envie!

    00:00 / 00:00
    outros vídeos desta música
    repetir qualidade Automático
    Outros vídeos desta música
    00:00 / 00:00
    Automático

    Cifra Club Pro

    Aproveite o Cifra Club com benefícios exclusivos e sem anúncios
    Cifra Club Pro
    Aproveite o Cifra Club com benefícios exclusivos e sem anúncios
    OK