Cifra Club

Aprenda

Part time lover

Stevie Wonder

Cifra: Principal (violão e guitarra)
Tom: Db (forma dos acordes no tom de C) Capotraste na 1ª casa
[Intro] Am  G  F7M  Em7  Dm7(9)  Em7  Am  Dm7(9)  Em7
        Am  G  F7M  Em7  Dm7(9)  Em7  Am  Dm7(9)  Em7
 

E|-------------------------------------------------------------------------------------------------|
B|--11--11--11--------11--13-14----11----11-------11-13-14---------11-14-13----11 -----11----------|
G|----------------13---------------10------------13-----------------10-----------------------13----|
D|-------------------------------------------------------------------------------------------------|
A|-------------------------------------------------------------------------------------------------|
E|-------------------------------------------------------------------------------------------------|

E|-------------------------------------------------------------------------------------------------|
B|------11-----------------------------------------------------------------------------------------|
G|------------13----10---13---8---10----13---10----------------------------------------------------|
D|-------------------------------------------------------------------------------------------------|
A|-------------------------------------------------------------------------------------------------|
E|-------------------------------------------------------------------------------------------------|

E|-------------------------------------------------------------------------------------------------|
B|------11--11--11--------11--13-14----11----11-------11-13-14---------11-14-13----11 -----11-------|
G|--------------------13---------------10------------13-----------------10---------------------13--|
D|-------------------------------------------------------------------------------------------------|
A|-------------------------------------------------------------------------------------------------|
E|-------------------------------------------------------------------------------------------------|

              Am
Call up, ring once, hang up the phone
    G       F7M
To let me know you made it home
            Em7            Dm7(9)       Em7   G   Am
Don't want nothing to be wrong with my part-time lover

   Em7        Am
If she's with me I'll blink the lights
    G        F7M
To let you know tonight's the night
     Em7    Dm7(9)  Em7   G  Am
For me and you, my part-time lover

Gm C9 F                      C
We are undercover passion on the run
         Dm7(9)              Em7 F7M G Am7
Chasing love up against the su..........un
Gm C9 F                      C
We are  strangers by day, lovers by night
                  Dm7(9)            Esus4
Knowing it's so wrong, but feeling so right

Em7           Am
If I'm with friends and we should meet
      G       F7M
Just pass me by, don't even speak
  Em7    Dm7(9)                  Em7   G   Am
Know the word's "discreet" when part-time lovers

But if there's some emergency
        G     F7M
Have a male friend to ask for me
     Em7           Dm7(9)                  Em7  G    Am
So then she won't peek its really you, my part-time lover

Gm C9 F                      C
We are undercover passion on the run
         Dm7(9)              Em7 F7M G Am7
Chasing love up against the sun
Gm C9 F                       C
We are  strangers by day, lovers by night
                  Dm7(9)            Esus4
Knowing it's so wrong, but feeling so right

( Am  G  F7M  Em7  Dm7(9)  Em7  Am Dm7(9)  Em7 )
( Am  G  F7M  Em7  Dm7(9)  Em7  Am )

Gm C9 F                          C
We are undercover passion on the run
         Dm7(9)              Em7 F7M G Am7
Chasing love up against the sun
Gm C9 F                         C
We are  strangers by day, lovers by night
                  Dm7(9)            Esus4
Knowing it's so wrong, but feeling so right

      Em7      Am
I've got something that I must tell
      G        F7M
Last night someone rang our doorbell
    Em7        Dm7(9)   Em7  G    Am
And it was not you, my part-time lover
     Em7      Am
And then a man called our exchange
     G      F7M
But didn't want to leave his name
     Em7             Dm7(9)
I guess that two can play the game
    Em7  G    Am
Of part-time lovers
        Dm7(9) Em7  G     Am
You and me,   part-time lovers
     Em7   Dm7(9)  Em7  G  Am
But, she and he,   part-time lovers

[Final] Am  G  F7M  Em7  Dm7(9)  Em7  Am  Dm7(9)  Em7 
Composição de Stevie Wonder
Colaboração e revisão:
19.056 exibições
    • ½ Tom
    • A
    • Bb
    • B
    • C
    • Db
    • D
    • Eb
    • E
    • F
    • F#
    • G
    • Ab
  • Adicionar à lista

    0 comentários

    Mostrar mais comentários

    Conseguiu tocar?

    2 Tocaram 3 Ainda não

    Grave um vídeo tocando Part time lover e mande pra gente!

    00:00 / 00:00
    outros vídeos desta música
    repetir qualidade Automático
    Outros vídeos desta música
    00:00 / 00:00
    Automático
    OK