Notificações Amigos pendentes

      Still Remains

      White Walls

      502 exibições
      Tom: A#
      This is the LEFT SPEAKER CHANNEL and only the chord patterns and a few riffs... i just
      wanted to get a few of these out there cause no one else has yet and this song owns. so
      i hope someone picks up on this and starts to make the whole tab, trust me if you do, it
      will be totally worth it.
      
      DROPPED C TUNNING
      
      
      D|---------|
      A|---------|
      E|---------|
      C|0-8-5-10-|
      G|0-8-5-10-|
      C|0-8-5-10-|
      
      
      D|---------|
      A|---------|
      E|-10-14-15-17-|
      C|--x--x--x--x-|
      G|--8-12-13-15-|
      C|---------|
      
      
      D|-------------------|
      A|-------------------|
      E|-10---14---15---17-|
      C|----0----0----0----|
      G|--8-0-12-0-13-0-15-|
      C|----0----0----0----|
      
      
      D|--------------------------------------------------------------------|
      A|--------------------------------------------------------------------|
      E|--------------------------------------------------------------------|
      C|-0------------------------------8-----------------------------------|
      G|-0---8---8---8---8---8---7h8p7--8---10---10---10---10---10---8h10p8-|
      C|-0-0---0---0---0---0---0--------8-8----8----8----8----8----8--------|
      
      
      D|-------------------------------------------------------------|
      A|-------------------------------------------------------------|
      E|-------------------------------------------------------------|
      C|-5-----------------------------0-----------------------------|
      G|-5---8---8---8---8---8---7h8p7-0---7---7---7---7---7---5h7p5-|
      C|-5-5---5---5---5---5---5-------0-0---0---0---0---0---0-------|
      
      
      D|---------------------------------------------------------------------|
      A|---------------------------------------------------------------------|
      E|---------------------------------------------------------------------|
      C|-0---------------------------------0---------------------------------|
      G|-0---10---8h10p8---7---8---7---7h8-0---10---8h10p8---7---8---7---7h8-|
      C|-0-0----0--------0---0---0---0-----0-0----0--------0---0---0---0-----|
      
      
      D|---------------------------------------------------------------------|
      A|---------------------------------------------------------------------|
      E|---------------------------------------------------------------------|
      C|-8---------------------------------0---------------------------------|
      G|-8---10---8h10p8---7---8---7---7h8-0---10---8h10p8---7---8---7---7h8-|
      C|-8-8----8--------5---5---5---5-----0-0----0--------0---0---0---0-----|
      
        Composição: Still Remains

        Comentários 0

        140 .
        140 cancelar

        conseguiu tocar?

        covers

        Grave um vídeo tocando White Walls e mande pra gente!

        Ex.: http://www.youtube.com/watch?v=0IvSvIwGdwk
        ver covers de outras músicas »
        0:00 / 0:00

        Capítulos

          1 versão de violão dificuldade exibições contribuição e correção
          1 versão de guitarra dificuldade exibições contribuição e correção
          1 versão de cavaco dificuldade exibições contribuição e correção
          1 versão de teclado dificuldade exibições contribuição e correção
          1 versão de baixo exibições contribuição e correção
          1 versão de Guitar Proformatodownloadscontribuição
          play/pausefechar subir/descer velocidade
          6ª corda E5ª corda A4ª corda D3ª corda G2ª corda B1ª corda E
            acordes
            publicidade
            fechar
            ok