Cifra Club

Aprenda

Fragile

Sting

Cifra: Principal (violão e guitarra)
tom: A (forma dos acordes no tom de G) Capotraste na 2ª casa
[Intro]

E|------7p5--5h7----------7p5--5h7--7p5--5h7--7p5h7\0--|
B|---5-----------------5-------------------------------|
G|-----------------------------------------------------|
D|-----------------------------------------------------|
A|-----------------------------------------------------|
E|-----------------------------------------------------|

E|------7p5--5h7----------7p5--5h7--7p5--5h7--|
B|---5-----------------5----------------------|
G|--------------------------------------------|
D|--------------------------------------------|
A|--------------------------------------------|
E|--------------------------------------------|

E|--------------------------------------------------------|
B|---12---------10-----8-------12--12-----8--------7--5---|
G|--------------------------------------------------------|
D|---12-----10---------9-------12--12-----9-----7-----5---|
A|-------------------------------------0-----0--------0---|
E|----0--0----------0-----------0---0---------------------|

E|--------------------------------------------------------|
B|---8--8--8--------7--5--5--4--4-------7--------5--8--8--|
G|--------------------------------------------------------|
D|---9--9--9-----7-----5--5--4--4-------7-----5-----9--9--|
A|---0--0-------------------------------------------------|
E|---------7--7--------7--7--7--7-------0--0--------0--0--|

E|-----------12----------------------------------------------------|
B|---12--12------12---------10--8--8--------12--12--8--------7--5--|
G|-----------------------------------------------------------------|
D|---12--12-------------10------9--9--------12--12--9-----7-----5--|
A|--------------------------------------------------0--0--------0--|
E|----0---0----------0----------0--0---------0---0-----------------|

E|--------------------------------------------------------------|
B|---8--8--8-----8--8--------7--5--5--4--4-------7--------8--5--|
G|--------------------------------------------------------------|
D|---9--9--9-----9--9-----7-----5--5--4--4-------7-----9-----5--|
A|---0--0-------------------------------------------------------|
E|---------7--7--------7--------7--7--7--7-------0--0--------0--|

|f blood will flow when flesh and steel are one
Drying in the colour of the evening sun

Tomorrow's rain will wash the stains away
But something in our minds will always stay

Perhaps this final act was meant to clinch a lifetime's argument
That nothing comes from violence and nothing ever could
For all those born beneath an angry star
Lest we forget how fragile we arePart |||:

{ Lyrics for this part: }

On and on the rain will fall
Like tears from a star   like tears from a star
On and on the rain will say
How fragile we are   how fragile we are


E|-----------------------------------------------| -----------------------|
B|---10--10--10--------8-------8--8--8--------7--| --8--7--7--5--5-----5--|
G|-----------------------------------------------| -----------------------|
D|---10--10--10-----9----------9--9--9-----7-----| --9--7--7--5--5--5-----|
A|----0---0---0----------------------------------| -----------------------|
E|---------------7-------------7--7--7--7--------| --0--0--0--0--0--------|

E|--------------------------------|
B|---7--8--7--7--5-------5--7--8--|
G|--------------------------------|
D|---7--9--7--7--5-------5--7--9--|
A|--------------------------------|
E|---0--0--0--0--0-------0--0--0--|

E|--------------------------------------------| -----------------------|
B|---10--10--10--------8-------8--8--8--------| --8--7--7--5--5-----5--|
G|--------------------------------------------| -----------------------|
D|---10--10--10-----9----------9--9--9-----7--| --9--7--7--5--5--5-----|
A|----0---0---0-------------------------------| -----------------------|
E|---------------7-------------7--7--7--7-----| --0--0--0--0--0--------|

E|------------------------|
B|---7--8--7--7--5--------|
G|------------------------|
D|---7--9--7--7--5--------|
A|------------------------|
E|---0--0--0--0--0--------|

E|------7p5--5h7-----------7p5--5--7--8--10--7--7\0--| ----------------------|
B|---5------------------5----------------------------| --8--5--7--8--5--7\0--|
G|---------------------------------------------------| ----------------------|
D|---------------------------------------------------| ----------------------|
A|---------------------------------------------------| ----------------------|
E|---------------------------------------------------| ----------------------|

E|------------5--7--8--10--7--8--5--7-----5--7\0--------|
B|---5--7--8---------------------------8----------------|
G|------------------------------------------------------|
D|------------------------------------------------------|
A|------------------------------------------------------|
E|------------------------------------------------------|

E|-------12--14--15--15--14--12-------14--15--14--14--12\11------|
B|---12------------------------------------------------------12--|
G|---------------------------------------------------------------|
D|---------------------------------------------------------------|
A|---------------------------------------------------------------|
E|---------------------------------------------------------------|

E|---12\11------12----------|
B|----------12----------5---|
G|--------------------------|
D|--------------------------|
A|--------------------------|
E|--------------------------|

E|-------7---5---7---8---7---5---------------------------5---7---5-------------|
B|---5---------------------------8-------7---5---7---8---------------8---7---5-|
G|-----------------------------------------------------------------------------|
D|-----------------------------------------------------------------------------|
A|-----------------------------------------------------------------------------|
E|-----------------------------------------------------------------------------|

E|---------------5---5\0---------------3---2---2/3\2---| ----7---5---7---8---7---|
B|---5---7---8---------------------5-------------------| -5----------------------|
G|-----------------------------4-----------------------| ------------------------|
D|-----------------------------------------------------| ------------------------|
A|-----------------------------------------------------| ------------------------|
E|-----------------------------------------------------| ------------------------|

(Use your thumb on this part)
E|---8---8---8---7---7---5---5-----------------------------|
B|-------------------------------8---8---7---5---7---------|
G|---------------------------------------------------------|
D|---------------------------------------------------------|
A|---------------------------------------------------------|
E|---------------------------------------------------------|

E|-------7---5---7---8---7---5---------------------------------------------|
B|---5---------------------------8---7---------8---7---8---7---8---7---5---|
G|-------------------------------------------------------------------------|
D|-------------------------------------------------------------------------|
A|-------------------------------------------------------------------------|
E|-------------------------------------------------------------------------|


On and on the rain will fall
Like tears from a star   like tears from a star
On and on the rain will say
How fragile we are   how fragile we are
How fragile we are   how fragile we are


E|-----------------------------------------------| -----------------------|
B|---10--10--10--------8-------8--8--8--------7--| --8--7--7--5--5-----5--|
G|-----------------------------------------------| -----------------------|
D|---10--10--10-----9----------9--9--9-----7-----| --9--7--7--5--5--5-----|
A|----0---0---0----------------------------------| -----------------------|
E|---------------7-------------7--7--7--7--------| --0--0--0--0--0--------|

E|--------------------------------|
B|---7--8--7--7--5-------5--7--8--|
G|--------------------------------|
D|---7--9--7--7--5-------5--7--9--|
A|--------------------------------|
E|---0--0--0--0--0-------0--0--0--|

E|-----------------------------------------------| -----------------------|
B|---10--10--10--------8-------8--8--8--------7--| --8--7--7--5--5-----5--|
G|-----------------------------------------------| -----------------------|
D|---10--10--10-----9----------9--9--9-----7-----| --9--7--7--5--5--5-----|
A|----0---0---0----------------------------------| -----------------------|
E|---------------7-------------7--7--7--7--------| --0--0--0--0--0--------|

E|------------------------|
B|---7--8--7--7--5--------|
G|---------------5--------|
D|---7--9--7--7--5--------|
A|------------------------|
E|---0--0--0--0--0--------|

E|--------------------------------------|
B|---7--8--7--7--5-------7--8--7--7--5--|
G|-----------------------------------5--|
D|---7--9--7--7--5-------7--9--7--7--5--|
A|-----------------------------------0--|
E|---0--0--0--0--0-------0--0--0--0-----|

E|------7p5--5h7----------7p5--5h7--7p5--5h7/12--| -----7p5--5h7--|
B|---5-----------------5-------------------------| --5------------|
G|-----------------------------------------------| ---------------|
D|-----------------------------------------------| ---------------|
A|-----------------------------------------------| ---------------|
E|-----------------------------------------------| ---------------|

E|---------------------------------------------------------------------|
B|---------------------------------------------------------------------|
G|---4--5-----4--------------------------------------------------------|
D|---------7-----5--7--4--5-----------4--5-----4--5--7--4--5--7--4--5--|
A|---------------------------------7--------7--------------------------|
E|---------------------------------------------------------------------|
 
Composição de Sting
Colaboração e revisão:
  • Paulo Valiante
  • Adriano Republicano
29.258 exibições
    • ½ Tom
    • A
    • Bb
    • B
    • C
    • Db
    • D
    • Eb
    • E
    • F
    • F#
    • G
    • Ab
  • Adicionar à lista

    0 comentários

    Ver todos os comentários

    Conseguiu tocar?

    2 Tocaram 0 Ainda não

    Grave um vídeo tocando Fragile e nos envie!

    00:00 / 00:00
    outros vídeos desta música
    repetir qualidade Automático
    Outros vídeos desta música
    00:00 / 00:00
    Automático

    Cifra Club Pro

    Aproveite o Cifra Club com benefícios exclusivos e sem anúncios
    Cifra Club Pro
    Aproveite o Cifra Club com benefícios exclusivos e sem anúncios
    OK