Cifra Club

Bother 0

Stone Sour

Cifra: Principal
exibições 12.664
Tom: E
Tabbed by: Xavieres
Standard Tuning

Verse 1:
|---------|-----------------|
|-7-------|-7-6--------7----|
|-8----6--|-----8-6----8--6-|
|-8----6--|---------8-----6-|
|-6----6--|---------6-----6-|
|---------|-----------------|
          |________x3_______|


Verse 2:
|--------------------------------------------------|
|-7----------7-------------------------------------|
|-8----6-----8----6--------------6-----6--6--6--6--|
|-8----6-----8----6-----6--6--6--6--6--6--6--6--6--|
|-6----6-----6----6-----4--4--4--4--4--4--4--4--4--|
|--------------------------------------------------|

|--------------------------------------------------------------------|
|-7------7-6---------7----------7------------------------------------|
|-8----6-----8-6-----8----6-----8----6--------------6-----6--6-6-6-6-|
|-8----6---------8-6-8----6-----8----6-----6--6--6--6--6--6--6-6-6-6-|
|-6----6-------------6----6-----6----6-----4--4--4--4--4--4--4-4-4-4-|
|--------------------------------------------------------------------|

|------------------------------------|
|-7---7-7-7--------------------------|
|-8---8-8-8-10---10-10---10-10-10-10-|
|-8---8-8-8-11---11-11---11-11-11-11-|
|-6---6-6-6-11---11-11---11-11-11-11-|
|------------9---9--9----9--9--9--9--|


Chorus:
|-------------------------------------------------|
|-7-----------7-----------------------------------|
|-8----10-----8-----7-7-7---7-7-7-7---7-7--7--7-7-|
|-8----11-----8-----8-8-8---8-8-8-8---8-8--8--8-8-|
|-6----11-----6-----8-8-8---8-8-8-8---8-8--8--8-8-|
|-------9-----------6-6-6---6-6-6-6---6-6--6--6-6-|

|-------------------------------------------------------------------|
|-7-----------------------------------------------------------------|
|-8----10-----4---4-4-4-4---4-4--4-4-4-4-6---6-6-6-6---6-6--6-6-6-6-|
|-8----11-----4---4-4-4-4---4-4--4-4-4-4-6---6-6-6-6---6-6--6-6-6-6-|
|-6----11-----2---2-2-2-2---2-2--2-2-2-2-4---4-4-4-4---4-4--4-4-4-4-|
|-------9-----------------------------------------------------------|


Verse 3:
|---------|-----------------|
|-7-------|-7-6--------7----|
|-8----6--|-----8-6----8--6-|
|-8----6--|---------8-----6-|
|-6----6--|---------6-----6-|
|---------|-----------------|
          |________x3_______|


Verse 4:
|-------------------------------------------------|
|-7----------7------------------------------------|
|-8----6-----8----6--------------6-----6--6--6----|
|-8----6-----8----6-----6--6--6--6--6--6--6--6----|
|-6----6-----6----6-----4--4--4--4--4--4--4--4----|
|-------------------------------------------------|

|--------------------------------------------------------------------|
|-7------7-6---------7----------7------------------------------------|
|-8----6-----8-6-----8----6-----8----6--------------6-----6--6--6----|
|-8----6---------8-6-8----6-----8----6-----6--6--6--6--6--6--6--6----|
|-6----6-------------6----6-----6----6-----4--4--4--4--4--4--4--4----|
|--------------------------------------------------------------------|

|------------------------------------|
|-7---7-7-7--------------------------|
|-8---8-8-8-10---10-10---10-10-10-10-|
|-8---8-8-8-11---11-11---11-11-11-11-|
|-6---6-6-6-11---11-11---11-11-11-11-|
|------------9---9--9---9--9--9--9---|


Verse 5:
|-----------------------------------------------------|
|-7----7---7-7-7-7--7-7-7-7---------------------------|
|-8----8---8-8-8-8--8-8-8-8-7----7---7-7-7-7--7-7-7-7-|
|-8----8---8-8-8-8--8-8-8-8-8----8---8-8-8-8--8-8-8-8-|
|-6----6---6-6-6-6--6-6-6-6-8----8---8-8-8-8--8-8-8-8-|
|---------------------------6----6---6-6-6-6--6-6-6-6-|

|-----------------------------------------------------|
|-----------------------------------------------------|
|-4----4---4-4-4-4--4-4-4-4-6----6---6-6-6-6--6-6-6-6-|
|-4----4---4-4-4-4--4-4-4-4-6----6---6-6-6-6--6-6-6-6-|
|-2----2---2-2-2-2--2-2-2-2-4----4---4-4-4-4--4-4-4-4-|
|-----------------------------------------------------|


Chorus:
|-------------------------------------------------|
|-7-----------7-----------------------------------|
|-8----10-----8-----7-7-7---7-7-7-7---7-7--7--7-7-|
|-8----11-----8-----8-8-8---8-8-8-8---8-8--8--8-8-|
|-6----11-----6-----8-8-8---8-8-8-8---8-8--8--8-8-|
|-------9-----------6-6-6---6-6-6-6---6-6--6--6-6-|

|-------------------------------------------------------------------|
|-7-----------------------------------------------------------------|
|-8----10-----4---4-4-4-4---4-4--4-4-4-4-6---6-6-6-6---6-6--6-6-6-6-|
|-8----11-----4---4-4-4-4---4-4--4-4-4-4-6---6-6-6-6---6-6--6-6-6-6-|
|-6----11-----2---2-2-2-2---2-2--2-2-2-2-4---4-4-4-4---4-4--4-4-4-4-|
|-------9-----------------------------------------------------------|

|------------|
|-7----------|
|-8----------|
|-8---(Solo)-|
|-6----------|
|------------|


Verse 6:
|---------|------------6----|
|-7-------|-7-6--------7----|
|-8----6--|-----8-6----8--6-|
|-8----6--|---------8-----6-|
|-6----6--|---------6-----6-|
|---------|-----------------|
          |________x3_______|


Verse 7:
|-------------------------------------------------|
|-7----------7------------------------------------|
|-8----6-----8----6--------------6-----6--6-6-6-6-|
|-8----6-----8----6-----6--6--6--6--6--6--6-6-6-6-|
|-6----6-----6----6-----4--4--4--4--4--4--4-4-4-4-|
|-------------------------------------------------|

|--------------------------------------------------------------------|
|-7------7-6---------7----------7------------------------------------|
|-8----6-----8-6-----8----6-----8----6--------------6-----6--6--6----|
|-8----6---------8-6-8----6-----8----6-----6--6--6--6--6--6--6--6----|
|-6----6-------------6----6-----6----6-----4--4--4--4--4--4--4--4----|
|--------------------------------------------------------------------|

|------------------------------------|
|-7---7-7-7--------------------------|
|-8---8-8-8-10---10-10---10-10-10-10-|
|-8---8-8-8-11---11-11---11-11-11-11-|
|-6---6-6-6-11---11-11---11-11-11-11-|
|------------9---9--9----9--9--9--9--|


Chorus: x2
|-------------------------------------------------|
|-7-----------7-----------------------------------|
|-8----10-----8-----7-7-7---7-7-7-7---7-7--7--7-7-|
|-8----11-----8-----8-8-8---8-8-8-8---8-8--8--8-8-|
|-6----11-----6-----8-8-8---8-8-8-8---8-8--8--8-8-|
|-------9-----------6-6-6---6-6-6-6---6-6--6--6-6-|

|-------------------------------------------------------------------|
|-7-----------------------------------------------------------------|
|-8----10-----4---4-4-4-4---4-4--4-4-4-4-6---6-6-6-6---6-6--6-6-6-6-|
|-8----11-----4---4-4-4-4---4-4--4-4-4-4-6---6-6-6-6---6-6--6-6-6-6-|
|-6----11-----2---2-2-2-2---2-2--2-2-2-2-4---4-4-4-4---4-4--4-4-4-4-|
|-------9-----------------------------------------------------------|


Verse 3:
|---------|-----------------|--------|
|-7-------|-7-6--------7----|--------|
|-8----6--|-----8-6----8--6-|----7---|
|-8----6--|---------8-----6-|---8----|
|-6----6--|---------6-----6-|--8-----|
|---------|-----------------|-6------|
          |________x3_______|
Acordes para:
    Colaboração e revisão:
    • Taian

    0 comentários

      mostrar mais comentários

      Conseguiu tocar?

      3tocaram0ainda não

      Grave um vídeo tocando Bother 0 e mande pra gente!

      00:00 / 00:00
      outros vídeos desta música
      repetirqualidadeautomática
      Outro vídeos desta música
        00:00 / 00:00
        automática
        OK