Cifra Club

Gone Sovereign

Stone Sour

Cifra: Principal
exibições 2.914
Tom: A
Intro guitarra 1:
E|-----------------------------------------|
B|-----------------------------------------|
G|-----------------------------------------|
D|-5------------------5--------------------|
A|-5------------------5--------------------|
E|-5--0-0-0-0-0-0-0-0-5--------------------|

Intro guitarra 2 (a partir da 3º repeticão da guitarra 1)

E|-----------------------------------------|
B|-----------------------------------------|
G|-----------------------------------------|
D|-7^-----------------7^-------------------|
A|-7^-----------------7^-------------------|
E|----0-0-0-0-0-0-0-0----------------------|
Acordes para:
    Composição: Stone SourColaboração e revisão:
    • Henrique Ribeiro

    0 comentários

      mostrar mais comentários

      Conseguiu tocar?

      0tocaram1ainda não

      Grave um vídeo tocando Gone Sovereign e mande pra gente!

      00:00 / 00:00
      outros vídeos desta música
      repetirqualidadeautomática
      Outro vídeos desta música
        00:00 / 00:00
        automática
        OK