Cifra Club

Hell Consequences

Stone Sour

Tab de baixo: Principal
exibições 449
Album: Come What (ever)May
Tunning: Drop B (B F# B E)
Tabber: Majin Gaara

Very easy to play on bass. The bass tab 
it thought you guys might wanna know 
how to have fun and play it before 
its even out! enjoy!

INTRO
(when you repeat this riff dont include
the beginning 3 note just start from 
the 5)
E |----------------------|
B |----------------------|
F#|----------------------|
B |-3--5-3-3-6-3-3-5-3-5-| X8

PREVERSE/PRECHORUS
|------------|
|------------|
|------------|
|-000-000-1--| X4
  

VERSE
|-------------------|
|-------------------|
|-------------------|
|-5-3-3-6-3-3-5-3-5-| X8

Play PREVERSE/PRECHORUS X4

CHORUS
|-------------------------|
|-------------------------|
|-------------------------|
|-3-3---6-6---10-8---3-3--| X2

INTERLUDE
|----------------------------|
|----------------------------|
|----------------------------|
|-3-5-3-5-3-0-0-0--6-6-3-5-6-| X2
          

VERSE 2
|-------------------|
|-------------------|
|-------------------|
|-5-3-3-6-3-3-5-3-5-| X4

Play PREVERSE X4

Play CHORUS X2

BRIDGE
|-------------------|
|-------------------|
|-------------------|
|-5-3-3-6-3-3-5-3-5-| X4

SOLO

For Bass Just play this
|-------------------|
|-------------------|
|-------------------|
|-5-3-3-6-3-3-5-3-5-| X16

REST OF BRIDGE
|-------------------|
|-------------------|
|-------------------|
|-5-3-3-6-3-3-5-3-5-| X8


Play PREVERSE/PRECHORUS X4

Play Chorus X4

Play INTERLUDE X4

Composição: Stone Sour

0 comentários

    mostrar mais comentários

    Conseguiu tocar?

    0tocaram0ainda não

    Grave um vídeo tocando Hell Consequences e mande pra gente!

    00:00 / 00:00
    outros vídeos desta música
    repetirqualidadeautomática
    Outro vídeos desta música
      00:00 / 00:00
      automática
      OK