Cifra Club

Hesitate

Stone Sour

Cifra: Principal
exibições 33.440
Tom: A# (com acordes na forma de B) Afinação: Eb Ab Db Gb Bb Eb
Arranjo completo de" hesitate " Guitarra 1 ,2 e 3
Compositor: Corey Taylor
Tom: A#
(1)= D# (4)= C#
(2)= A# (5)= G#
(3)= F# (6)= D#
(Guitarra 3)
|-7--7--7--7--6--6--7--7------6h7--|
|---7--7--7--7--7--7--7--7---------|
|----------------------------------|(4x)
|----------------------------------|
|----------------------------------|
|----------------------------------|

|---------------------------------|
|---------------------------------|
|---------------------------------|
|-------2-----2---------4-----6---|
|-----2-----2----2----4-----6----6|
|---0-----0----0----2-----4----4--|

|---------------------------------------|
|---------------------------------------|
|------------------------4--------------|
|-----2----2----------4--------4--------|
|----2----2-----2---2--------4-------4--|
|---0--0—----0------------2------2-----|

|---------------------------------|
|---------------------------------|
|---------------------------------|
|-------2-----2---------4-----6---|
|-----2-----2----2----4-----6----6|
|---0-----0----0----2-----4----4--|

|---------------------------------|
|---------------------------------|
|---------------------------------|
|----8---8---8---8---9---9---9----|
|--6---6---6---6---7---7---7---7--|
|-------------------------------|

|---------------------------------|
|---------------------------------|
|---------------------------------|
|----8---8---8---8---9---9---9----|
|--6---6---6---6---7---7---7---7--|
|-------------------------------|
(refrão)
|------------------------------------------------------|
|------------------------------------------------------|
|------------------------------------------------------|
|9-9-9-9-9-9-9-9-9-9-9-9--9--6--6-6-6-6-6-6-6-6-6-6-6-6|
|9-9-9-9-9-9-9-9-9-9-9-9--9--6--6-6-6-6-6-6-6-6-6-6-6-6|
|7-7-7-7-7-7-7-7-7-7-7-7--7--4--4-4-4-4-4-4-4-4-4-4-4-4|

|-----------------------------------------------|
|-----------------------------------------------|
|9-9-9-9-9-9-9-9-9-9-9-9------------------------|
|9-9-9-9-9-9-9-9-9-9-9-9-9-9-9-9-9-9-9-9-9-9-9-9|
|7-7-7-7-7-7-7-7-7-7-7-7-9-9-9-9-9-9-9-9-9-9-9-9|
|------------------------7-7-7-7-7-7-7-7-7-7-7-7|
(guitarra“1”e”3”)

(base na parte do solo)
|------------------------------------|
|------------------------------------|
|------------------------------------|
|-------2------------4---------6-----|(2x)                                                                             |-----2----2-------4---4-----6---6---|
|---0-----------2----------4-------—|

|-----------------------------------------|
|-----------------------------------------|
|-----------------------------------------|
|-------4------------4---------4--------4-|                                                                            |-----4---4-------4---4-----4---4----4---4|
|---2-----------2---------2-------2—-----|

|------------------------------------|
|------------------------------------|
|------------------------------------|
|-------2------------4---------6-----|(2x)                                                                               |-----2----2-------4---4-----6---6---|
|---0-----------2----------4-------—|

|-----------------------------------------|
|-----------------------------------------|
|-----------------------------------------|
|-------4------------4---------4--------4-|                                                                             |-----4---4-------4---4-----4---4----4---4|
|---2-----------2---------2-------2—-----|
(guitarra 2)

|----------------------------------|(Parte 1)
|----------------------------------|
|-4--4—-4-—4--3--3--4--4-----------|
|---4--4--4--4--4--4--4--4---------|
|----------------------------------|
|----------------------------------|

|----------------------------------------------------|(Parte 2)
|----------------------------------------------------|
|-4--4—-4-—4--3--3--4--4--3--3--3---4—--3h4----------|
|---4--4--4--4--4--4--4--4--4--4--4------------------|
|----------------------------------------------------|
|----------------------------------------------------|
(Repete a “Parte1” e “Parte2” 2x)
|------------------------|(Parte 3)
|------------------------|
|-3--3—-3--3-----3h4-----|(2x)
|---4--4--4--4-----------|
|------------------------|
|------------------------|
(Refrão )
|----------|-------|-------|
|----------|-------|-------|
|---9---9--|-------|---9/--|
|---9---9--|--9--9-|---9/--|
|---7---7--|--9--9-|---7/--|
|----------|--7--7-|-------|

|--------|----------------|----|----------|------|
|--------|----------------|----|----------|------|
|--9--8--|8--8---6--9--4--|-11-|-4----4--8|9---9-|
|--------|----------------|----|----------|9---9-|
|--7--6--|6--6---4--7--6--|-9--|-2----2--6|7---7-|
|--------|--------------|----|----------|------|

(Solo)
|/12-11--------------------------------|
|-------12-----------------------------|
|-----------11--9-8-9--11-9--8---9--11-|
|--------------------------------------|
|--------------------------------------|
|--------------------------------------|

|/12-11----------------------------------------|
|-------12-------------------------------------|
|-----------11--9-8-9--11-13--11--9h11h9--8—9--|
|----------------------------------------------|
|----------------------------------------------|
|----------------------------------------------|

|/12-11--------------------------------|
|-------12-----------------------------|
|-----------11--9-8-9--11-9--8---6—4---|
|--------------------------------------|
|--------------------------------------|
|--------------------------------------|

|-----------------|
|-----------------|
|----3--3-----4---|
|-----------------|
|-----------------|
|-----------------|

(Pós solo )

|-------------------------|
|-------------------------|
|---/8-6-6-6-6--4-4-4-4---|
|-------------------------|
|---/6-4-4-4-4--2-2-2-2---|
|-------------------------|

|-----------|
|-----------|
|--3--------|
|-----6----4|
|--1--------|
|-----4----2|

(Final)
(Repete 4x)
|----------------------------------------------|
|-4--4---4--4--4/5/4-0---------------------4---|
|---4--4—-4-—4---------4-4-4-4-4-4-4-4--4-4--4-|
|----------------------------------------------|
|----------------------------------------------|
|----------------------------------------------|

|--------------------------------|
|-4/5/4-0--------------------4---|
|---------4-4-4-4-4-4-4-4-4-4--4-|
|--------------------------------|
|--------------------------------|
|--------------------------------|

|--------------------------------------|
|-4/5/4-0---------4--4--4--4--4--4/5/7-|
|---------4-4-4-4---4--4--4—-4---------|
|--------------------------------------|
|--------------------------------------|
|--------------------------------------|

(Guitarra 1)
(verso)
|-------|-------|--------|
|---0---|---0---|---0----|
|---4---|---6---|---8----|(3x)
|-------|-------|--------|
|-------|-------|--------|
|-------|-------|--------|

|-----------------------0|
|----0----0---0---0---0--|
|---3---3---3---3---4----|
|------------------------|
|------------------------|
|------------------------|

(verso 1) com acompanhamento de outras 2 guitarras

|-------|-------|--------|
|-------|-------|--------|
|-------|-------|--------|
|---2---|--4----|---6----|
|---2---|--4----|---6----|
|---0---|--2----|---4----|

|-------|-------|--------|
|-------|-------|--------|
|-------|--4----|--------|
|---2---|--4----|---4----|
|---2---|--2----|---4----|
|---0---|-------|---2----|

|-------|-------|--------|--------|------|
|-------|-------|--------|--------|------|
|-------|-------|--------|--------|------|
|---2---|--4----|--6-----|----8---|--9---|
|---2---|--4----|--6-----|----6---|--7---|
|---0---|--2----|--4-----|--------|------|

|--------|-------|
|--------|-------|
|--------|-------|(2x)
|----8---|--9----|
|----6---|--7----|
|--------|-------|
(refrão)
|------------------------------------------------------|
|------------------------------------------------------|
|------------------------------------------------------|
|9-9-9-9-9-9-9-9-9-9-9-9--9--6--6-6-6-6-6-6-6-6-6-6-6-6|
|9-9-9-9-9-9-9-9-9-9-9-9--9--6--6-6-6-6-6-6-6-6-6-6-6-6|
|7-7-7-7-7-7-7-7-7-7-7-7--7--4--4-4-4-4-4-4-4-4-4-4-4-4|

|-----------------------------------------------|
|-----------------------------------------------|
|9-9-9-9-9-9-9-9-9-9-9-9------------------------|
|9-9-9-9-9-9-9-9-9-9-9-9-9-9-9-9-9-9-9-9-9-9-9-9|
|7-7-7-7-7-7-7-7-7-7-7-7-9-9-9-9-9-9-9-9-9-9-9-9|
|------------------------7-7-7-7-7-7-7-7-7-7-7-7|

(guitarra“1”e”3”)
|-----------|--------|--------|
|-----------|--------|--------|
|---9---9---|--------|---9/---|
|---9---9---|--9--9--|---9/---|
|---7---7---|--9--9--|---7/---|
|-----------|--7--7--|--------|

((base na parte do solo)
|---------------------|
|---------------------|
|---------------------|
|---2----4-----6------|(3x)
|---2----4-----6------|
|---0----2-----4-----|

|----------|
|----------|
|----------
|---4---4--|
|---4---4--|
|---2---2--|

|---------------------|
|---------------------|
|---------------------|
|---2----4-----6------|(3x)
|---2----4-----6------|
|---0----2-----4-----—|

|------------------------------------|
|------------------------------------|
|------------------------------------|
|-------2------------4---------6-----|(2x)
|-----2----2-------4---4-----6---6---|
|---0-----------2----------4-------—|

|-------------------------------------|
|-------------------------------------|
|-------------------------------------|
|---4-4-4-4-4-4-4-4-4-4-4-4-4-4-4-4---|                                                                             |---4-4-4-4-4-4-4-4-4-4-4-4-4-4-4-4---|
|---2-2-2-2-2-2-2-2-2-2-2-2-2-2-2-2---|

(O final é somente repete o refrão “4x” serve tanto para Guitarra” 1” e “3”)

Acordes para:
    Composição: Stevie Blacke / Stone SourColaboração e revisão:
    • Jonatha David
    • Sérgio

    0 comentários

      mostrar mais comentários

      Conseguiu tocar?

      3tocaram1ainda não

      Grave um vídeo tocando Hesitate e mande pra gente!

      00:00 / 00:00
      outros vídeos desta música
      repetirqualidadeautomática
      Outro vídeos desta música
        00:00 / 00:00
        automática
        OK