Cifra Club

Aprenda

Reborn Intro

Stone Sour

Cifra: Principal (violão e guitarra)
tom: A
Song;Reborn
Album:Come what(ever) may

B F# B E G# C#


all i have so far is the intro and chrous.I am working on the rest.I checked this with 
vid. and it seemed right.

C#-------------------------------------------------------|
G#-------------------------------------------------------|
E--------------------------------------------------------|
B--3-3-3-5-4-5-3-3-3--5-7--3-3-3-5-4-3-3-3-3-7-7-7-5-5-5-|
F#-3-3-3-3-2-3-3-3-3--5-7--3-3-3-3-2-3-3-3-3-7-7-7-5-5-5-|
B--3-3-3-------3-3-3--5-7--3-3-3-------3-3-3-7-7-7-5-5-5-|
pm _____       _____       _____       _________________


Chorus
G#--------5-5-5----|
E---------5-5-5----|
B--2-2-2-----------|   X3
F#-2-2-2-----------|
B--2-2-2-----------|
         ^Natural Harmonics

Forth time
B----------------------|
F#---------------------|
B--2-6-2-5-2-4-2-1-0-1-|

It sounds right but it may not * oh well i tried.If anyone can get the rest please 
it to S*.
Compositor não encontrado.
1.199 exibições
    • ½ Tom
    • A
    • Bb
    • B
    • C
    • Db
    • D
    • Eb
    • E
    • F
    • F#
    • G
    • Ab
  • Adicionar à lista

    0 comentários

    Ver todos os comentários

    Conseguiu tocar?

    0 Tocaram 0 Ainda não

    Grave um vídeo tocando Reborn Intro e nos envie!

    00:00 / 00:00
    Outros vídeos desta música
    Repetir Qualidade Automático
    Outros vídeos desta música
    00:00 / 00:00
    Automático

    Cifra Club Pro

    Aproveite o Cifra Club com benefícios exclusivos e sem anúncios
    Cifra Club Pro
    Aproveite o Cifra Club com benefícios exclusivos e sem anúncios
    OK