Cifra Club

Aprenda

Army Ants

Stone Temple Pilots

Cifra: Principal (violão e guitarra)
Tom: A
 riff:     (X4)
    D5       A5   B5   E5 F5           C5
e:---------------------------------------------------------------

B:---------------------------------------------------------------

G:--77777777-----------9/10101010101010--------------------------

D:--77777777-7777-9999-9/101010101010101010101010101010----------

A:--55555555-7777-9999-7/8-8-8-8-8-8-8-1010101010101010----------

E:--55555555-5555-7777-7/8-8-8-8-8-8-8-8-8-8-8-8-8-8-8-----------





verso:
e:--------------------------------------        --x-x-x-x-x----
B:--------------------------------------        --x-x-x-x-x----
G:--7-7-7-7-7-7-5-5-5-5-5-5-5--5-5-5-5--        --x-x-x-x-x----
D:--7-7-7-7-7-7-5-5-5-5-5-5-5--5-5-5-5--        --x-x-x-x-x----
A:--0-0-0-0-0-0-0-0-0-0-0-0-0--0-0-0-0--        --x-x-x-x-x----
E:--------------------------------------        --x-x-x-x-x----
    you don't   look but you kick me ..........


   (X4)
    A
e:----------------------------------    --------------
B:--2-2-2-2-2-2-2-2---2--2-2-2-2----    -0h2-2-2-2-2--
G:--2-2-2-2-2-2-2-2---2--2-2-2-2----    -2---2-2-2-2--
D:--2-2-2-2-2-2-2-2---2--2-2-2-2----    -2---2-2-2-2--
A:--0-0-0-0-0-0-0-0---0--0-0-0-0----             -0---0-0-0-0--
E:----------------------------------             --------------
           why do we all have to look this way..........


 riff (X4)

verso 1



    Ebsus2   Asus9??     Dsus2
e:---6-6-6---------------5-5-5-5-5-5-5-----------
B:---6-6-6---2--2-2-2----5-5-5-5-5-5-5-----------
G:---8-8-8---3--3-3-3----7-7-7-7-7-7-7-----------
D:---8-8-8---2--2-2-2----7-7-7-7-7-7-7-----------
A:---6-6-6---0--0-0-0----5-5-5-5-5-5-5-----------
E:---6-6-6---------------5-5-5-5-5-5-5-----------

e:---6-6-6-----------------------------
B:---6-6-6---x-x--2---2-2-2-2-2-2------
G:---8-8-8---x-x--3---3-3-3-3-3-3------
D:---8-8-8---x-x--2---2-2-2-2-2-2------
A:---6-6-6---x-x--0---0-0-0-0-0-0------
E:---6-6-6---x-x-----------------------




                           D5
e:--6-6----------------------------------------
B:--6-6---x-x--2--2-2-2----3-3-3-3-3-3-3-3-----
G:--8-8---x-x--3--3-3-3----2-2-2-2-2-2-2-2-----  X2
D:--8-8---x-x--2--2-2-2----0-0-0-0-0-0-0-0-----
A:--6-6---x-x--0--0-0-0----0-0-0-0-0-0-0-0-----
E:--6-6---x-x----------------------------------

                                Ab
e:--6-6-------------------------4-4-4-4--------
B:--6-6----2---2-2-2----3--3----4-4-4-4--------
G:--8-8----3---3-3-3----2--2----5-5-5-5--------
D:--8-8----2---2-2-2----0--0----6-6-6-6--------
A:--6-6----0---0-0-0----0--0----6-6-6-6--------
E:--6-6-------------------------4-4-4-4--------




You don't look but you kick me
You can't feel but you hit me
You can't live with the way i pray

Why do we all have to look this way
I gotta heart, i got blood feel pain

Time time is not on my side
cause the way i am.
Gotta gotta now gotta find a reason why
A woman aint a man

(verso 1)

Why do we all have to think this way
I gotta heart, i got blood feel pain

Fall into those single file lines
like army ants
Yeah, fall into those single file lines
And complete the plan

(verso 1)


You don't look but you kick me
You can't deal with the way i pray
Composição de Dean DeLeo / Scott Weiland
3.275 exibições
    • ½ Tom
    • A
    • Bb
    • B
    • C
    • Db
    • D
    • Eb
    • E
    • F
    • F#
    • G
    • Ab
  • Adicionar à lista

    0 comentários

    Mostrar mais comentários

    Conseguiu tocar?

    0 Tocaram 0 Ainda não

    Grave um vídeo tocando Army Ants e mande pra gente!

    00:00 / 00:00
    outros vídeos desta música
    repetir qualidade Automático
    Outros vídeos desta música
    00:00 / 00:00
    Automático

    Cifra Club Pro

    Aproveite o Cifra Club com benefícios exclusivos e sem anúncios
    7 dias grátis
    Cifra Club Pro
    Aproveite o Cifra Club com benefícios exclusivos e sem anúncios
    7 dias grátis
    OK