Cifra Club

Aprenda

Crackerman

Stone Temple Pilots

Tab de baixo: Principal
[Intro]

G|-----------------|-----------------|-----------------|-----------------|
D|-----------------|-----------------|-----------------|-----------------|
A|-0-2-2-0-2-2-0-2-|-2-0-2-2-0-2-2-2-|-----------------|-----------------|
E|-----------------|-----------------|-0-2-2-5-2-2-0-2-|-2-5-2-2-0-2-2-2-|
   1 & 2 & 3 & 4 &   1 & 2 & 3 & 4 &   1 & 2 & 3 & 4 &   1 & 2 & 3 & 4 &

G|-----------------|-----------------|-----------------|-----------------|
D|-----------------|-----------------|-----------------|-----------------|
A|-0-2-2-0-2-2-0-2-|-2-0-2-2-0-2-2-2-|-0---------------|(0)--------------|
E|-----------------|-----------------|-----------------|-------------12\-|
   1 & 2 & 3 & 4 &   1 & 2 & 3 & 4 &   1 & 2 & 3 & 4 &   1 & 2 & 3 & 4 &

[Verso]

G|-----------------|-----------------|
D|-----------------|-----------------|  (4x)
A|-----------------|-----------------|
E|-0-2-2-5-2-2-0-2-|-2-5-2-2-0-2-2-2-|
   1 & 2 & 3 & 4 &   1 & 2 & 3 & 4 &

[Refrão]

G|-----------------|-----------------|-----------------|-----------------|
D|-----------------|-----------------|-----------------|-----------------|
A|-0-2-2-0-2-2-0-2-|-2-0-2-2-0-2-2-2-|-----------------|-----------------|
E|-----------------|-----------------|-0-2-2-5-2-2-0-2-|-2-5-2-2-0-2-2-2-|
   1 & 2 & 3 & 4 &   1 & 2 & 3 & 4 &   1 & 2 & 3 & 4 &   1 & 2 & 3 & 4 &

G|-----------------|-----------------|-----------------|-----------------|
D|-----------------|-----------------|-----------------|-----------------|
A|-0-2-2-0-2-2-0-2-|-2-0-2-2-0-2-2-2-|-0---------------|-----------------|
E|-----------------|-----------------|-----------------|-------------12\-|
   1 & 2 & 3 & 4 &   1 & 2 & 3 & 4 &   1 & 2 & 3 & 4 &   1 & 2 & 3 & 4 &

[Verso]

G|-----------------|-----------------|
D|-----------------|-----------------| (4x)
A|-----------------|-----------------|
E|-0-2-2-5-2-2-0-2-|-2-5-2-2-0-2-2-2-|
   1 & 2 & 3 & 4 &   1 & 2 & 3 & 4 &

[Refrão]

G|-----------------|-----------------|-----------------|-----------------|
D|-----------------|-----------------|-----------------|-----------------|
A|-0-2-2-0-2-2-0-2-|-2-0-2-2-0-2-2-2-|-----------------|-----------------|
E|-----------------|-----------------|-0-2-2-5-2-2-0-2-|-2-5-2-2-0-2-2-2-|
   1 & 2 & 3 & 4 &   1 & 2 & 3 & 4 &   1 & 2 & 3 & 4 &   1 & 2 & 3 & 4 &

G|-----------------|-----------------|
D|-----------------|-----------------|
A|-0-2-2-0-2-2-0-2-|-2-0-2-2-0-2-2-2-|
E|-----------------|-----------------|
   1 & 2 & 3 & 4 &   1 & 2 & 3 & 4 &

[Ponte]

    s s s s s s s s s s s s s s       s s s s s s s s s s s s s s
G|---------------------------------|---------------------------------|
D|---------------------------------|---------------------------------|
A|-------------5-4-5/7-7---7-8-9-\-|-------------5-4-5-5-5---5-5-----|
E|-2-0-2-5-4-5-----------9---------|-2-0-2-5-4-5-----------5-----5-\-|
   1   &   2   &   3   &   4   &   1   &   2   &   3   &   4   &  

    s s s s s s s s s s s s s s       s s s s s s 
G|---------------------------------|---------------------------------|
D|---------------------------------|---------------------------------|
A|-------------5-4-5/7-7---7-8-9-\-|-------------5-------------------|
E|-2-0-2-5-4-5-----------9---------|-2-0-2-5-4-5---------------/12\--|
   1   &   2   &   3   &   4   &   1   &   2   &   3   &   4   &

[Solo]

G|-----------------|-----------------|
D|-----------------|-----------------|
A|-----------------|-----------------|
E|-0-2-2-5-2-2-0-2-|-2-5-2-2-0-2-2-2-|
   1 & 2 & 3 & 4 &   1 & 2 & 3 & 4 &

[Refrão]

G|-----------------|-----------------|-----------------|-----------------|
D|-----------------|-----------------|-----------------|-----------------|
A|-0-2-2-0-2-2-0-2-|-2-0-2-2-0-2-2-2-|-----------------|-----------------|
E|-----------------|-----------------|-0-2-2-5-2-2-0-2-|-2-5-2-2-0-2-2-2-|
   1 & 2 & 3 & 4 &   1 & 2 & 3 & 4 &   1 & 2 & 3 & 4 &   1 & 2 & 3 & 4 &

G|-----------------|-----------------|
D|-----------------|-----------------|
A|-0-2-2-0-2-2-0-2-|-2-0-2-2-0-2-2-2-|
E|-----------------|-----------------|
   1 & 2 & 3 & 4 &   1 & 2 & 3 & 4 &

[Ponte]

    s s s s s s s s s s s s s s       s s s s s s s s s s s s s s
G|---------------------------------|---------------------------------|
D|---------------------------------|---------------------------------|
A|-------------5-4-5/7-7---7-8-9-\-|-------------5-4-5-5-5---5-5-----|
E|-2-0-2-5-4-5-----------9---------|-2-0-2-5-4-5-----------5-----5-\-|
   1   &   2   &   3   &   4   &   1   &   2   &   3   &   4   &  

    s s s s s s s s s s s s s s       s s s s s s 
G|---------------------------------|---------------------------------|
D|---------------------------------|---------------------------------|
A|-------------5-4-5/7-7---7-8-9-\-|-------------5-------------------|
E|-2-0-2-5-4-5-----------9---------|-2-0-2-5-4-5---------------/12\--|
   1   &   2   &   3   &   4   &   1   &   2   &   3   &   4   &

[Final
            
G|-----------------|-----------------||-----------------|-----------------|
D|-----------------|-----------------||-----------------|-----------------|
A|-----------------|-----------------||-----------------|-----------------|
E|-0-2-2-5-2-2-0-2-|-2-5-2-2-0-2-2-2-||-0-2-2-5-2-0-5---|(5)--------------|
   1 & 2 & 3 & 4 &   1 & 2 & 3 & 4 &   1 & 2 & 3 & 4 &   1 & 2 & 3 & 4 &
Composição de Eric Kretz / Robert DeLeo / Scott Weiland
Colaboração e revisão:
  • Gabriel Leite
1.361 exibições

0 comentários

Mostrar mais comentários

Conseguiu tocar?

0 Tocaram 0 Ainda não

Grave um vídeo tocando Crackerman e mande pra gente!

00:00 / 00:00
outros vídeos desta música
repetir qualidade Automático
Outros vídeos desta música
00:00 / 00:00
Automático

Cifra Club Pro

Aproveite o Cifra Club com benefícios exclusivos e sem anúncios
7 dias grátis
Cifra Club Pro
Aproveite o Cifra Club com benefícios exclusivos e sem anúncios
7 dias grátis
OK