Cifra Club

Interstate love song

Stone Temple Pilots

Cifra: Principal (violão e guitarra)
Selo Cifra Club: esta cifra foi revisada para atender aos critérios oficiais da nossa Equipe de Qualidade.
tom: E
[Intro] C#m  E  A  A7(4/9)  G#  A  E

E|-----------------------------------------------------0-|
B|--------------------------------------4~-4/5/4~------0-|
G|--4/6~--4--4/6/4~------------------5~------------6~--1-|
D|------------------6--4/2~--4-4/6~--------------------2-|
A|-----------------------------------------------------2-|
E|-----------------------------------------------------0-|

[Riff 1]

E|---0--0--0----------0--|
B|-2/3--2--0--0------0---|
G|------------2--1h2-----|
D|-----------------------| (Riff 1 + Riff 2 2x)
A|-----------------------|
E|-----------------------|

[Riff 2]

E|--0--0--0--| --0-0-0-0-0-0---|---0--0--0--|
B|--0--0--0--| --0-0-0-0-0-0---|---0--0--0--|
G|--1--2--1--| --1-1-1-1-1-1---|---1--2--1--|
D|--2--4--2--| --2-2-2-2-2-2---|---2--4--2--|
A|--2--4--2--| --2-2-2-2-2-2---|---2--4--2--|
E|--0--0--0--| --0-0-0-0-0-0---|---0--0--0--|

C#m             G#/C
Waiting on a Sunday afternoon
    C#/B                      Bbm7(5-)
For what I've read between the lines
     A9
Your lies

C#m             G#/C
Feelin' like a hand in rusted shame
   C#/B                      Bbm7(5-)
So do you laugh or does it cry?
    A9
Reply?

[Riff 2 - Riff 1 - Riff 2]

C#m          E
Leavin' on a southern train
     A9            G#
Only yesterday you lied
A9                  E
Promises of what I seemed to be
     A9               G#
Only watched the time go by
A9                       E
All of these things you said to me

(Riff 1 - Riff 2)[x2]

C#m             G#/C
Breathing is the hardest thing to do
     C#/B
With all I've said and
          Bbm7(5-)
All that's dead for you
    A9  Riff 2        Riff 2      A9
You lied             Goodbye

[Riff 2]

C#m          E
Leavin' on a southern train
     A9             G#
Only yesterday, you lied
A9                  E
Promises of what I seemed to be
     A9               G#
Only watched the time go by
A9                     E
All of these things I said to you

[Riff 1 - Riff 2]

(Intro Alternativa - Slide Guitar)

E|------------------------------------|
B|------------------------------------|
G|------------------------------------|
D|--11~---9--11--9--------------------|
A|------------------11---9--/7~-------|
E|------------------------------------|

E|------------------------------------|
B|------------------------------------|
G|------------------------------------|
D|--------10--13--13b14---11~---------|
A|-9--11------------------------------|
E|------------------------------------|
Outros vídeos desta música
    189.541 exibições
      • ½ Tom
      • A
      • Bb
      • B
      • C
      • Db
      • D
      • Eb
      • E
      • F
      • F#
      • G
      • Ab
    • Adicionar à lista

    Afinação da cifra

    Afinador online

      0 comentários

      Ver todos os comentários

      Entre para o Cifra Club PRO

      Tenha acesso a benefícios exclusivos no App e no Site

      • Chega de anúncios

      • Mais recursos no app do Afinador

      • Atendimento Prioritário

      • Aumente seu limite de lista

      • Ajude a produzir mais conteúdo

      Cifra Club Pro

      Aproveite o Cifra Club com benefícios exclusivos e sem anúncios
      Cifra Club Pro
      Aproveite o Cifra Club com benefícios exclusivos e sem anúncios
      OK