Cifra Club

Hijo De La Luna

Stravaganzza

Cifra: Principal (violão e guitarra)
tom: Dm
E|---------| --------------   ------------   -------------
   Dm    Gm    Dm     Bm
E|--1------3-----1------2---| (xxx=muchas veces rapido)
B|--3------3-----3------3---|
G|----2-----3------2------4-| (s=dejar sonar)
D|-0-----------0------------|
A|--------------------2-----|
E|-------3------------------| X2

Dm                   Gm   Dm  Gm
 Tonto el que no entienda
Dm             Gm   Dm Gm
 cuenta unaa leyenda
F                  A7
 que una hembra gitana
Dm             C
 conjuro a la Luna
  Bm      A7    Dm Gm
 hasta el amancer.
F            A7
 Llorando pedia
Dm                 C
 que al llegar el dia
  Bm   A7          Dm
 desposara a un Cale.
   D          G          D          B
E|---------------------------------------------|
B|---------------------------------------------|
G|-7-7-7-7-7-------------7-7-7-7-7--4-4-4-4-4--|
D|-7-7-7-7-7--5-5-5-5-5--7-7-7-7-7--4-4-4-4-4--|
A|-5-5-5-5-5s-5-5-5-5-5--5-5-5-5-5s-2-2-2-2-2s-|
E|------------3-3-3-3-3s-----------------------|
   D                        G       D                            G
E|----------------------------------------------------------------------|
B|----------------------------------------------------------------------|
G|-7--------------------------------7-----------------------------------|
D|-7------------------------5-5-5-5-7----------------------------5-5-5-5|
A|-5------------------------5-5-5-5-5----------------------------5-5-5-5|
E|--------------------------3-3-3-3------------------------------3-3-3-3|
  Tendras a tu hombre, piel morena;  Desde el cielo hablo la luna llena

   F               A         D           C     B   A             D  G
E|--------------------------------------------------------------------|
B|--------------------------------------------------------------------|
G|---------------------------------------------4-----------------7----|
D|---------------------------------------------4---7----7--7-----7--5-|
A|---------------------------5xxxxx-----3xxxxx-2---7----7--7-----5--5-|
E|-1xxxx------------5xxxxxx------------------------5----5--5--------3-|
    Pero a cambio quiero    el  hijo primero, que le enjendres a el

   Que quien su hijo inmola para no estar sola, poco le iva a querer
   (IGUAL QUE EL ANTEIOR)

  F   G
E|--------|
B|--------|
G|--------|
D|3-3-5-5-|
A|3-3-5-5-|
E|1-1-3-3-|    -CORO-

   A                   F   E  A                   F       E         A
E|--------------------------------------------------------------------|
B|--------------------------------------------------------------------|
G|--------------------------------------------------------------------|
D|-7--7------7-7---7--3-3-2-2-7--7--------7----7--3---3---2--2-2--2-3-|
A|-7--7------7-7---7--3-3-2-2-7--7--------7----7--3---3---2--2-2--2-3-|
E|-5--5------5-5---5--1-1-0-0-5--5--------5----5--1---1---0--0-0--0-5-|
     Luna quieres ser madre   y no encuentras querer que te haga mujer

    A             F     E     A      F        E                   A
E|-------------------------------------------------------------------|
B|-------------------------------------------------------------------|
G|-------------------------------------------------------------------|
D|----------------------------------------------------------------7--|
A|----------------------------------------------------------------7--|
E|--5xxx----------1xxx-0xxx---5xxx---1xxx-----0xxx----------------5--|
    Dime luna de plata      ¿que pretendes hacer con un niño de piel?

   D        A       D       A   G#   A    Bb   B
E|-------------------------------------------------------|
B|-------------------------------------------------------|
G|-7----------------7------------------------------------|
D|-7--------7-------7-------7---6-6--7-7--8-8--9---------|
A|-5--------7-------5-------7---6-6--7-7--8-8--9---------|
E|----------5---------------5---4-4--5-5--6-6--7s--------|
   Ah-ah-ah-ah     Ah-ah-ah-ah                 Hijo de la luna


De padre canela nacio un niño
blanco como el lomo de un armiño.
Con los ojos grises
en vez de aceituna
niño albino de Luna.
Maldita su estampa
este hijo es un payo
y yo no me lo callo.

-CORO-

Gitano al creerse deshonrado
se fue a su mujer cuchillo en mano
de quien es el hijo
me has engañao fijo
y de muerte la hirio.
Luego se hizo al monte
con el niño en brazos
y ahi le abandono.

-CORO-

Dm                 Gm    Dm   Gm
 Y en las noches que haga Luna llena
Dm               Gm  Dm     Gm
 sera porque el niño este de buenas
F               A7
 Y si el niño llora
Dm            C
 menguara la Luna
Bm       A7        Dm Gm
 para hacerle una cuna.

E|------------| ---------------------       ---------       ------
00:00 / 00:00
Outros vídeos desta música
Repetir
Outros vídeos desta música
Composição de José María cano
299 exibições
    • ½ Tom
    • Am
    • Bbm
    • Bm
    • Cm
    • C#m
    • Dm
    • Ebm
    • Em
    • Fm
    • F#m
    • Gm
    • G#m
  • Adicionar à lista

    0 comentários

    Ver todos os comentários

    Conseguiu tocar?

    0 Tocaram 0 Ainda não

    Grave um vídeo tocando Hijo De La Luna e nos envie!

    Entre para oCifra Club PRO

    Tenha acesso a benefícios exclusivos no App e no Site

    • Chega de anúncios

    • Prioridade de compra em lançamentos

    • Mais recursos no app do Afinador

    • Atendimento Prioritário

    • Descontos nos produtos Cifra Club

    • Ajude a produzir mais conteúdo

    00:00 / 00:00

    Cifra Club Pro

    Aproveite o Cifra Club com benefícios exclusivos e sem anúncios
    Cifra Club Pro
    Aproveite o Cifra Club com benefícios exclusivos e sem anúncios
    OK