Cifra Club

Miedo (2o acto - sentimientos)

Stravaganzza

Cifra: Principal (violão e guitarra)
tom: E
E||-------|E|---------------|E|---------------|--------------|
B||-------|E|---------------|E|---------------|--------------|
G||-------|E|---------------|E|---------------|--------------|
D||-------|--7E|---------------|-------7--7--7--7----7----|
A||-------|--5E|---------------|-------5--5--5--5----5----|
E||-------|E|---------------|E|---------------|--------------|


  Q    Q    E  E  E  E     E  E  E  E  Q    Q
E|E|---------------|---------|E|---------------|---------|
B|E|---------------|---------|E|---------------|---------|
G|E|---------------|---------|E|---------------|---------|
D|--7----7----7--6--6--6--|--7--7--7--7--7----7----|
A|--5----5----5--4--4--4--|--5--5--5--5--5----5----|
E|E|---------------|---------|E|---------------|---------|

  Q    Q    E  E  E  E     E  E  E  E  Q    Q
E|E|---------------|---------|E|---------------|---------|
B|E|---------------|---------|E|---------------|---------|
G|E|---------------|---------|E|---------------|---------|
D|--7----7----7--6--6--6--|--7--7--7--7--7----7----|
A|--5----5----5--4--4--4--|--5--5--5--5--5----5----|
E|E|---------------|---------|E|---------------|---------|

  Q    Q    E  E  E  E     E  E  E  E  E  E  E  E
E|E|---------------|---------|E|---------------|-----------|
B|E|---------------|---------|E|---------------|-----------|
G|E|---------------|---------|E|---------------|-----------|
D|--7----7----7--6--6--6--|--6--6--6--6--6--6--6--6--|
A|--5----5----5--4--4--4--|--4--4--4--4--4--4--4--4--|
E|E|---------------|---------|E|---------------|-----------|

  E  E  E  E  E  E  E  E     E  E  E  E  Q    Q
E|E|---------------|-----------|E|---------------|---------|
B|E|---------------|-----------|E|---------------|---------|
G|E|---------------|-----------|E|---------------|---------|
D|--6--6--6--6--6--6--6--6--|--7--7--7--7--7----7----|
A|--4--4--4--4--4--4--4--4--|--5--5--5--5--5----5----|
E|E|---------------|-----------|E|---------------|---------|

  Q    Q    E  E  E  E     E  E  E  E  Q    Q
E|E|---------------|---------|E|---------------|---------|
B|E|---------------|---------|E|---------------|---------|
G|E|---------------|---------|E|---------------|---------|
D|--7----7----7--6--6--6--|--7--7--7--7--7----7----|
A|--5----5----5--4--4--4--|--5--5--5--5--5----5----|
E|E|---------------|---------|E|---------------|---------|

  Q    Q    E  E  E  E     E  E  E  E  Q    Q
E|E|---------------|---------|E|---------------|---------|
B|E|---------------|---------|E|---------------|---------|
G|E|---------------|---------|E|---------------|---------|
D|--7----7----7--6--6--6--|--7--7--7--7--7----7----|
A|--5----5----5--4--4--4--|--5--5--5--5--5----5----|
E|E|---------------|---------|E|---------------|---------|

  Q    Q    E  E  E  E     E  E  E  E  E  E  E  E
E|E|---------------|---------|E|---------------|-----------|
B|E|---------------|---------|E|---------------|-----------|
G|E|---------------|---------|E|---------------|-----------|
D|--7----7----7--6--6--6--|--6--6--6--6--6--6--6--6--|
A|--5----5----5--4--4--4--|--4--4--4--4--4--4--4--4--|
E|E|---------------|---------|E|---------------|-----------|

  E  E  E  E  E  E  E  E             E  E  E  E  Q    Q
E|E|---------------|-----------|-------|E|---------------|---------|
B|E|---------------|-----------|-------|E|---------------|---------|
G|E|---------------|-----------|-------|E|---------------|---------|
D|--6--6--6--6--6--6--6--6--|-------|--7--7--7--7--7----7----|
A|--4--4--4--4--4--4--4--4--|-------|--5--5--5--5--5----5----|
E|E|---------------|-----------|-------|E|---------------|---------|

  Q    Q    E  E  E  E     E  E  E  E  Q    Q
E|E|---------------|---------|E|---------------|---------|
B|E|---------------|---------|E|---------------|---------|
G|E|---------------|---------|E|---------------|---------|
D|--7----7----7--7--7--7--|--6--6--6--6--6----6----|
A|--5----5----5--5--5--5--|--4--4--4--4--4----4----|
E|E|---------------|---------|E|---------------|---------|

  Q    Q    E  E  E  E     E  E  E  E  Q    Q
E|E|---------------|---------|E|---------------|---------|
B|E|---------------|---------|E|---------------|---------|
G|E|---------------|---------|E|---------------|---------|
D|--6----6----6--6--6--6--|--7--7--7--7--7----7----|
A|--4----4----4--4--4--4--|--5--5--5--5--5----5----|
E|E|---------------|---------|E|---------------|---------|

  Q    Q    E  E  E  E     E  E  E  E  Q    Q
E|E|---------------|---------|E|---------------|---------|
B|E|---------------|---------|E|---------------|---------|
G|E|---------------|---------|E|---------------|---------|
D|--7----7----7--7--7--7--|--6--6--6--6--6----6----|
A|--5----5----5--5--5--5--|--4--4--4--4--4----4----|
E|E|---------------|---------|E|---------------|---------|

  Q    Q    E  E  E  E     E  E  E  E  Q    Q
E|E|---------------|---------|E|---------------|---------|
B|E|---------------|---------|E|---------------|---------|
G|E|---------------|---------|E|---------------|---------|
D|--6----6----6--6--6--6--|--7--7--7--7--7----7----|
A|--4----4----4--4--4--4--|--5--5--5--5--5----5----|
E|E|---------------|---------|E|---------------|---------|

  Q    Q    E  E  E  E     E  E  E  E  Q    Q
E|E|---------------|---------|E|---------------|---------|
B|E|---------------|---------|E|---------------|---------|
G|E|---------------|---------|E|---------------|---------|
D|--7----7----7--7--7--7--|--6--6--6--6--6----6----|
A|--5----5----5--5--5--5--|--4--4--4--4--4----4----|
E|E|---------------|---------|E|---------------|---------|

  Q    Q    E  E  E  E     E  E  E  E  Q    Q
E|E|---------------|---------|E|---------------|---------|
B|E|---------------|---------|E|---------------|---------|
G|E|---------------|---------|E|---------------|---------|
D|--6----6----6--6--6--6--|--7--7--7--7--7----7----|
A|--4----4----4--4--4--4--|--5--5--5--5--5----5----|
E|E|---------------|---------|E|---------------|---------|

  Q    Q    E  E  E  E     E  E  E  E  Q    Q
E|E|---------------|---------|E|---------------|---------|
B|E|---------------|---------|E|---------------|---------|
G|E|---------------|---------|E|---------------|---------|
D|--7----7----7--7--7--7--|--6--6--6--6--6----6----|
A|--5----5----5--5--5--5--|--4--4--4--4--4----4----|
E|E|---------------|---------|E|---------------|---------|

  Q    Q    E  E  E  E     Q    E  E  Q    E  E
E|E|---------------|---------|E|---------------|---------|
B|E|---------------|---------|E|---------------|---------|
G|E|---------------|---------|E|---------------|---------|
D|--6----6----6--6--6--6--|--9----9--9--9----9--9--|
A|--4----4----4--4--4--4--|--7----7--7--7----7--7--|
E|E|---------------|---------|--0----0--0--0----0--0--|

  Q    E  E  Q    E  E     H          H
E|E|---------------|---------|E|---------------|-------|
B|E|---------------|---------|E|---------------|-------|
G|E|---------------|---------|E|---------------|-------|
D|--9----9--9--9----9--9--|--8s--------13--------|
A|--7----7--7--7----7--7--|--6s--------11--------|
E|--0----0--0--0----0--0--|E|---------------|-------|

   S  S  S  S S S S S S S S S S S S S    Q    E  E  Q    E  E
E|E|---------------|E|---------------|--------|E|---------------|---------|
B|E|---------------|E|---------------|--------|E|---------------|---------|
G|E|---------------|E|---------------|--------|E|---------------|---------|
D|--13-12-11-10-9-8-7-6-5-4-3-2-1-0-----|--9----9--9--9----9--9--|
A|--11-10--9--8-7-6-5-4-3-2-1-0-----4-3-|--7----7--7--7----7--7--|
E|E|---------------|E|---------------|4-3-2-1-|--0----0--0--0----0--0--|

  Q    E  E  Q    E  E     H          H
E|E|---------------|---------|E|---------------|--------|
B|E|---------------|---------|E|---------------|--------|
G|E|---------------|---------|E|---------------|--------|
D|--9----9--9--9----9--9--|--8s--------13s--------|
A|--7----7--7--7----7--7--|--6s--------11s--------|
E|--0----0--0--0----0--0--|E|---------------|--------|

   S  S  S  S S S S S S S S S S S S S    Q    E  E  Q    E  E
E|E|---------------|E|---------------|--------|E|---------------|---------|
B|E|---------------|E|---------------|--------|E|---------------|---------|
G|E|---------------|E|---------------|--------|E|---------------|---------|
D|--13-12-11-10-9-8-7-6-5-4-3-2-1-0-----|--9----9--9--9----9--9--|
A|--11-10--9--8-7-6-5-4-3-2-1-0-----4-3-|--7----7--7--7----7--7--|
E|E|---------------|E|---------------|4-3-2-1-|--0----0--0--0----0--0--|

  Q    E  E  Q    E  E     H          H
E|E|---------------|---------|E|---------------|--------|
B|E|---------------|---------|E|---------------|--------|
G|E|---------------|---------|E|---------------|--------|
D|--9----9--9--9----9--9--|--8s--------13s--------|
A|--7----7--7--7----7--7--|--6s--------11s--------|
E|--0----0--0--0----0--0--|E|---------------|--------|

   S  S  S  S S S S S S S S S S S S S    Q    E  E  Q    E  E
E|E|---------------|E|---------------|--------|E|---------------|---------|
B|E|---------------|E|---------------|--------|E|---------------|---------|
G|E|---------------|E|---------------|--------|E|---------------|---------|
D|--13-12-11-10-9-8-7-6-5-4-3-2-1-0-----|--9----9--9--9----9--9--|
A|--11-10--9--8-7-6-5-4-3-2-1-0-----4-3-|--7----7--7--7----7--7--|
E|E|---------------|E|---------------|4-3-2-1-|--0----0--0--0----0--0--|

  Q    E  E  Q    E  E     H          H
E|E|---------------|---------|E|---------------|--------|
B|E|---------------|---------|E|---------------|--------|
G|E|---------------|---------|E|---------------|--------|
D|--9----9--9--9----9--9--|--8s--------13s--------|
A|--7----7--7--7----7--7--|--6s--------11s--------|
E|--0----0--0--0----0--0--|E|---------------|--------|

   S  S  S  S S S S S S S S S S S S S    E  E  E  E  Q    Q
E|E|---------------|E|---------------|--------|E|---------------|---------|
B|E|---------------|E|---------------|--------|E|---------------|---------|
G|E|---------------|E|---------------|--------|E|---------------|---------|
D|--13-12-11-10-9-8-7-6-5-4-3-2-1-0-----|--7--7--7--7--7----7----|
A|--11-10--9--8-7-6-5-4-3-2-1-0-----4-3-|--5--5--5--5--5----5----|
E|E|---------------|E|---------------|4-3-2-1-|E|---------------|---------|

  Q    Q    E  E  E  E     E  E  E  E  Q    Q
E|E|---------------|---------|E|---------------|---------|
B|E|---------------|---------|E|---------------|---------|
G|E|---------------|---------|E|---------------|---------|
D|--7----7----7--6--6--6--|--7--7--7--7--7----7----|
A|--5----5----5--4--4--4--|--5--5--5--5--5----5----|
E|E|---------------|---------|E|---------------|---------|

  Q    Q    E  E  E  E     E  E  E  E  Q    Q
E|E|---------------|---------|E|---------------|---------|
B|E|---------------|---------|E|---------------|---------|
G|E|---------------|---------|E|---------------|---------|
D|--7----7----7--6--6--6--|--7--7--7--7--7----7----|
A|--5----5----5--4--4--4--|--5--5--5--5--5----5----|
E|E|---------------|---------|E|---------------|---------|

  Q    Q    E  E  E  E     E  E  E  E  E  E  E  E
E|E|---------------|---------|E|---------------|-----------|
B|E|---------------|---------|E|---------------|-----------|
G|E|---------------|---------|E|---------------|-----------|
D|--7----7----7--6--6--6--|--6--6--6--6--6--6--6--6--|
A|--5----5----5--4--4--4--|--4--4--4--4--4--4--4--4--|
E|E|---------------|---------|E|---------------|-----------|

  E  E  E  E  E  E  E  E     E  E  E  E  Q    Q
E|E|---------------|-----------|E|---------------|---------|
B|E|---------------|-----------|E|---------------|---------|
G|E|---------------|-----------|E|---------------|---------|
D|--6--6--6--6--6--6--6--6--|--7--7--7--7--7----7----|
A|--4--4--4--4--4--4--4--4--|--5--5--5--5--5----5----|
E|E|---------------|-----------|E|---------------|---------|

  Q    Q    E  E  E  E     E  E  E  E  Q    Q
E|E|---------------|---------|E|---------------|---------|
B|E|---------------|---------|E|---------------|---------|
G|E|---------------|---------|E|---------------|---------|
D|--7----7----7--6--6--6--|--7--7--7--7--7----7----|
A|--5----5----5--4--4--4--|--5--5--5--5--5----5----|
E|E|---------------|---------|E|---------------|---------|

  Q    Q    E  E  E  E     E  E  E  E  Q    Q
E|E|---------------|---------|E|---------------|---------|
B|E|---------------|---------|E|---------------|---------|
G|E|---------------|---------|E|---------------|---------|
D|--7----7----7--6--6--6--|--7--7--7--7--7----7----|
A|--5----5----5--4--4--4--|--5--5--5--5--5----5----|
E|E|---------------|---------|E|---------------|---------|

  Q    Q    E  E  E  E     E  E  E  E  E  E  E  E
E|E|---------------|---------|E|---------------|-----------|
B|E|---------------|---------|E|---------------|-----------|
G|E|---------------|---------|E|---------------|-----------|
D|--7----7----7--6--6--6--|--6--6--6--6--6--6--6--6--|
A|--5----5----5--4--4--4--|--4--4--4--4--4--4--4--4--|
E|E|---------------|---------|E|---------------|-----------|

  E  E  E  E  E  E  E  E           E  E  E  E  Q    Q
E|E|---------------|-----------|-----|E|---------------|---------|
B|E|---------------|-----------|-----|E|---------------|---------|
G|E|---------------|-----------|-----|E|---------------|---------|
D|--6--6--6--6--6--6--6--6--|-----|--7--7--7--7--7----7----|
A|--4--4--4--4--4--4--4--4--|-----|--5--5--5--5--5----5----|
E|E|---------------|-----------|-----|E|---------------|---------|

  Q    Q    E  E  E  E     E  E  E  E  Q    Q
E|E|---------------|---------|E|---------------|---------|
B|E|---------------|---------|E|---------------|---------|
G|E|---------------|---------|E|---------------|---------|
D|--7----7----7--7--7--7--|--6--6--6--6--6----6----|
A|--5----5----5--5--5--5--|--4--4--4--4--4----4----|
E|E|---------------|---------|E|---------------|---------|

  Q    Q    E  E  E  E     E  E  E  E  Q    Q
E|E|---------------|---------|E|---------------|---------|
B|E|---------------|---------|E|---------------|---------|
G|E|---------------|---------|E|---------------|---------|
D|--6----6----6--6--6--6--|--7--7--7--7--7----7----|
A|--4----4----4--4--4--4--|--5--5--5--5--5----5----|
E|E|---------------|---------|E|---------------|---------|

  Q    Q    E  E  E  E     E  E  E  E  Q    Q
E|E|---------------|---------|E|---------------|---------|
B|E|---------------|---------|E|---------------|---------|
G|E|---------------|---------|E|---------------|---------|
D|--7----7----7--7--7--7--|--6--6--6--6--6----6----|
A|--5----5----5--5--5--5--|--4--4--4--4--4----4----|
E|E|---------------|---------|E|---------------|---------|

  Q    Q    E  E  E  E     E  E  E  E  Q    Q
E|E|---------------|---------|E|---------------|---------|
B|E|---------------|---------|E|---------------|---------|
G|E|---------------|---------|E|---------------|---------|
D|--6----6----6--6--6--6--|--7--7--7--7--7----7----|
A|--4----4----4--4--4--4--|--5--5--5--5--5----5----|
E|E|---------------|---------|E|---------------|---------|

  Q    Q    E  E  E  E     E  E  E  E  Q    Q
E|E|---------------|---------|E|---------------|---------|
B|E|---------------|---------|E|---------------|---------|
G|E|---------------|---------|E|---------------|---------|
D|--7----7----7--7--7--7--|--6--6--6--6--6----6----|
A|--5----5----5--5--5--5--|--4--4--4--4--4----4----|
E|E|---------------|---------|E|---------------|---------|

  Q    Q    E  E  E  E     E  E  E  E  Q    Q
E|E|---------------|---------|E|---------------|---------|
B|E|---------------|---------|E|---------------|---------|
G|E|---------------|---------|E|---------------|---------|
D|--6----6----6--6--6--6--|--7--7--7--7--7----7----|
A|--4----4----4--4--4--4--|--5--5--5--5--5----5----|
E|E|---------------|---------|E|---------------|---------|

  Q    Q    E  E  E  E     E  E  E  E  Q    Q
E|E|---------------|---------|E|---------------|---------|
B|E|---------------|---------|E|---------------|---------|
G|E|---------------|---------|E|---------------|---------|
D|--7----7----7--7--7--7--|--6--6--6--6--6----6----|
A|--5----5----5--5--5--5--|--4--4--4--4--4----4----|
E|E|---------------|---------|E|---------------|---------|

  Q    Q    E  E  E  E     Q    E  E  Q    E  E
E|E|---------------|---------|E|---------------|---------|
B|E|---------------|---------|E|---------------|---------|
G|E|---------------|---------|E|---------------|---------|
D|--6----6----6--6--6--6--|--9----9--9--9----9--9--|
A|--4----4----4--4--4--4--|--7----7--7--7----7--7--|
E|E|---------------|---------|--0----0--0--0----0--0--|

  Q    E  E  Q    E  E     H          H
E|E|---------------|---------|E|---------------|-------|
B|E|---------------|---------|E|---------------|-------|
G|E|---------------|---------|E|---------------|-------|
D|--9----9--9--9----9--9--|--8s--------13--------|
A|--7----7--7--7----7--7--|--6s--------11--------|
E|--0----0--0--0----0--0--|E|---------------|-------|

   S  S  S  S S S S S S S S S S S S S    Q    E  E  Q    E  E
E|E|---------------|E|---------------|--------|E|---------------|---------|
B|E|---------------|E|---------------|--------|E|---------------|---------|
G|E|---------------|E|---------------|--------|E|---------------|---------|
D|--13-12-11-10-9-8-7-6-5-4-3-2-1-0-----|--9----9--9--9----9--9--|
A|--11-10--9--8-7-6-5-4-3-2-1-0-----4-3-|--7----7--7--7----7--7--|
E|E|---------------|E|---------------|4-3-2-1-|--0----0--0--0----0--0--|

  Q    E  E  Q    E  E     H          H
E|E|---------------|---------|E|---------------|--------|
B|E|---------------|---------|E|---------------|--------|
G|E|---------------|---------|E|---------------|--------|
D|--9----9--9--9----9--9--|--8s--------13s--------|
A|--7----7--7--7----7--7--|--6s--------11s--------|
E|--0----0--0--0----0--0--|E|---------------|--------|

   S  S  S  S S S S S S S S S S S S S    Q    E  E  Q    E  E
E|E|---------------|E|---------------|--------|E|---------------|---------|
B|E|---------------|E|---------------|--------|E|---------------|---------|
G|E|---------------|E|---------------|--------|E|---------------|---------|
D|--13-12-11-10-9-8-7-6-5-4-3-2-1-0-----|--9----9--9--9----9--9--|
A|--11-10--9--8-7-6-5-4-3-2-1-0-----4-3-|--7----7--7--7----7--7--|
E|E|---------------|E|---------------|4-3-2-1-|--0----0--0--0----0--0--|

  Q    E  E  Q    E  E     H          H
E|E|---------------|---------|E|---------------|--------|
B|E|---------------|---------|E|---------------|--------|
G|E|---------------|---------|E|---------------|--------|
D|--9----9--9--9----9--9--|--8s--------13s--------|
A|--7----7--7--7----7--7--|--6s--------11s--------|
E|--0----0--0--0----0--0--|E|---------------|--------|

   S  S  S  S S S S S S S S S S S S S    Q    E  E  Q    E  E
E|E|---------------|E|---------------|--------|E|---------------|---------|
B|E|---------------|E|---------------|--------|E|---------------|---------|
G|E|---------------|E|---------------|--------|E|---------------|---------|
D|--13-12-11-10-9-8-7-6-5-4-3-2-1-0-----|--9----9--9--9----9--9--|
A|--11-10--9--8-7-6-5-4-3-2-1-0-----4-3-|--7----7--7--7----7--7--|
E|E|---------------|E|---------------|4-3-2-1-|--0----0--0--0----0--0--|

  Q    E  E  Q    E  E     H          H
E|E|---------------|---------|E|---------------|--------|
B|E|---------------|---------|E|---------------|--------|
G|E|---------------|---------|E|---------------|--------|
D|--9----9--9--9----9--9--|--8s--------13s--------|
A|--7----7--7--7----7--7--|--6s--------11s--------|
E|--0----0--0--0----0--0--|E|---------------|--------|


                                          TP
   S  S  S  S S S S S S S S S S S S S     W
E|E|---------------|E|---------------|--------|--11bE|---------------|-|
B|E|---------------|E|---------------|--------|---9bE|---------------|-|
G|E|---------------|E|---------------|--------|E|---------------|------|
D|--13-12-11-10-9-8-7-6-5-4-3-2-1-0-----|E|---------------|------|
A|--11-10--9--8-7-6-5-4-3-2-1-0-----4-3-|E|---------------|------|
E|E|---------------|E|---------------|4-3-2-1-|E|---------------|------|


                       TP
  W                    W                    W
--LE|---------------|-|--14bE|---------------|-|--LE|---------------|-|
--LE|---------------|-|--12bE|---------------|-|--LE|---------------|-|
E|E|---------------|----|E|---------------|------|E|---------------|----|
B|E|---------------|----|E|---------------|------|E|---------------|----|
G|E|---------------|----|E|---------------|------|E|---------------|----|
D|E|---------------|----|E|---------------|------|E|---------------|----|


   TP                                        TP
   W                    W                    W
E|--16bE|---------------|-|--| LE|---------------|-|--21bE|---------------|-|
B|--14bE|---------------|-|--| LE|---------------|-|--20bE|---------------|-|
G|E|---------------|------|E|---------------|----|E|---------------|------|
D|E|---------------|------|E|---------------|----|E|---------------|------|
A|E|---------------|------|E|---------------|----|E|---------------|------|
E|E|---------------|------|E|---------------|----|E|---------------|------|


  W                    Q     E   E   Q     E   E
--LE|---------------|-|--13----12--13--12----11--12--|
--LE|---------------|-|E|---------------|E|---------------||
E|E|---------------|----|E|---------------|E|---------------||
B|E|---------------|----|E|---------------|E|---------------||
G|E|---------------|----|E|---------------|E|---------------||
D|E|---------------|----|E|---------------|E|---------------||

   Q     H         E   E      E   E   Q     Q     Q
E|--11----14--------13--14--|--15--14--12----14----11----|
B|E|---------------|-----------|E|---------------|-------------|
G|E|---------------|-----------|E|---------------|-------------|
D|E|---------------|-----------|E|---------------|-------------|
A|E|---------------|-----------|E|---------------|-------------|
E|E|---------------|-----------|E|---------------|-------------|

   H.            E   E      E   E   Q     Q     E   E
E|--12E|---------------|-----|E|---------------|-10--------14--|
B|E|---------------|-12--13--|--12E|---------------|-----------|
G|E|---------------|---------|------13--12----------13------|
D|E|---------------|---------|E|---------------|E|---------------||
A|E|---------------|---------|E|---------------|E|---------------||
E|E|---------------|---------|E|---------------|E|---------------||


  Q     Q     H            H.            E   E
--L----------16--------|--18------------17--18--|
E|E|---------------|--------|E|---------------|---------|
B|-------15--------------|E|---------------|---------|
G|E|---------------|--------|E|---------------|---------|
D|E|---------------|--------|E|---------------|---------|
A|E|---------------|--------|E|---------------|---------|

   Q     H.              Q    E  E  Q    E  E
E|--17----14------------|E|---------------|---------|
B|E|---------------|-------|E|---------------|---------|
G|E|---------------|-------|E|---------------|---------|
D|E|---------------|-------|--9----9--9--9----9--9--|
A|E|---------------|-------|--7----7--7--7----7--7--|
E|E|---------------|-------|--0----0--0--0----0--0--|

  Q    E  E  Q    E  E     H          H
E|E|---------------|---------|E|---------------|-------|
B|E|---------------|---------|E|---------------|-------|
G|E|---------------|---------|E|---------------|-------|
D|--9----9--9--9----9--9--|--8s--------13--------|
A|--7----7--7--7----7--7--|--6s--------11--------|
E|--0----0--0--0----0--0--|E|---------------|-------|

   S  S  S  S S S S S S S S S S S S S    Q    E  E  Q    E  E
E|E|---------------|E|---------------|--------|E|---------------|---------|
B|E|---------------|E|---------------|--------|E|---------------|---------|
G|E|---------------|E|---------------|--------|E|---------------|---------|
D|--13-12-11-10-9-8-7-6-5-4-3-2-1-0-----|--9----9--9--9----9--9--|
A|--11-10--9--8-7-6-5-4-3-2-1-0-----4-3-|--7----7--7--7----7--7--|
E|E|---------------|E|---------------|4-3-2-1-|--0----0--0--0----0--0--|

  Q    E  E  Q    E  E     H          H
E|E|---------------|---------|E|---------------|--------|
B|E|---------------|---------|E|---------------|--------|
G|E|---------------|---------|E|---------------|--------|
D|--9----9--9--9----9--9--|--8s--------13s--------|
A|--7----7--7--7----7--7--|--6s--------11s--------|
E|--0----0--0--0----0--0--|E|---------------|--------|

   S  S  S  S S S S S S S S S S S S S    Q    E  E  Q    E  E
E|E|---------------|E|---------------|--------|E|---------------|---------|
B|E|---------------|E|---------------|--------|E|---------------|---------|
G|E|---------------|E|---------------|--------|E|---------------|---------|
D|--13-12-11-10-9-8-7-6-5-4-3-2-1-0-----|--9----9--9--9----9--9--|
A|--11-10--9--8-7-6-5-4-3-2-1-0-----4-3-|--7----7--7--7----7--7--|
E|E|---------------|E|---------------|4-3-2-1-|--0----0--0--0----0--0--|

  Q    E  E  Q    E  E     H          H
E|E|---------------|---------|E|---------------|--------|
B|E|---------------|---------|E|---------------|--------|
G|E|---------------|---------|E|---------------|--------|
D|--9----9--9--9----9--9--|--8s--------13s--------|
A|--7----7--7--7----7--7--|--6s--------11s--------|
E|--0----0--0--0----0--0--|E|---------------|--------|

   S  S  S  S S S S S S S S S S S S S    Q    E  E  Q    E  E
E|E|---------------|E|---------------|--------|E|---------------|---------|
B|E|---------------|E|---------------|--------|E|---------------|---------|
G|E|---------------|E|---------------|--------|E|---------------|---------|
D|--13-12-11-10-9-8-7-6-5-4-3-2-1-0-----|--9----9--9--9----9--9--|
A|--11-10--9--8-7-6-5-4-3-2-1-0-----4-3-|--7----7--7--7----7--7--|
E|E|---------------|E|---------------|4-3-2-1-|--0----0--0--0----0--0--|

  Q    E  E  Q    E  E     H          H
E|E|---------------|---------|E|---------------|--------|
B|E|---------------|---------|E|---------------|--------|
G|E|---------------|---------|E|---------------|--------|
D|--9----9--9--9----9--9--|--8s--------13s--------|
A|--7----7--7--7----7--7--|--6s--------11s--------|
E|--0----0--0--0----0--0--|E|---------------|--------|

   S  S  S  S S S S S S S S S S S S S
E|E|---------------|E|---------------|--------|E|---------------|----|
B|E|---------------|E|---------------|--------|E|---------------|----|
G|E|---------------|E|---------------|--------|E|---------------|----|
D|--13-12-11-10-9-8-7-6-5-4-3-2-1-0-----|E|---------------|----|
A|--11-10--9--8-7-6-5-4-3-2-1-0-----4-3-|E|---------------|----|
E|E|---------------|E|---------------|4-3-2-1-|E|---------------|----|

E|E|---------------|----|E|---------------|----|E|---------------|----|
B|E|---------------|----|E|---------------|----|E|---------------|----|
G|E|---------------|----|E|---------------|----|E|---------------|----|
D|E|---------------|----|E|---------------|----|E|---------------|----|
A|E|---------------|----|E|---------------|----|E|---------------|----|
E|E|---------------|----|E|---------------|----|E|---------------|----|

E|E|---------------|----|E|---------------|----|E|---------------|----|
B|E|---------------|----|E|---------------|----|E|---------------|----|
G|E|---------------|----|E|---------------|----|E|---------------|----|
D|E|---------------|----|E|---------------|----|E|---------------|----|
A|E|---------------|----|E|---------------|----|E|---------------|----|
E|E|---------------|----|E|---------------|----|E|---------------|----|

E|E|---------------|----|E|---------------|----| |
B|E|---------------|----|E|---------------|----| |
G|E|---------------|----|E|---------------|----| |
D|E|---------------|----|E|---------------|----| |
A|E|---------------|----|E|---------------|----| |
E|E|---------------|----|E|---------------|----| |

Duration Legend
E|---------------|
W - whole
H - half
Q - quarter
E - 8th
S - 16th
T - 32nd
X - 64th
. - note dotted
|-n-|  - n-tuplets


Tablature Legend
E|---------------|-
L - tied note
x - dead note
g - grace note
(n) - ghost note
> - accentuded note
NH - natural harmonic
AH - artificial harmonic
TH - tapped harmonic
SH - semi harmonic
PH - pitch harmonic
h - hammer on
p - pull off
b - bend
br - bendRelease
pb - preBend
pbr - preBendRelease
brb - bendReleaseBend
n/ - tremolo bar dip
n - tremolo bar dive
-/n - tremolo bar Release up
/n - tremolo bar inverted dip
/n - tremolo bar return
-n - tremolo bar Release down
S - shift slide
s - legato slide
/ -  slide into from below or out of upwards
 -  slide into from above or out of downwards
~ - vibrato
W - wide vibrato
tr - trill
TP - tremolo picking
T - tapping
S - slap
P - pop
< - fade in
^ - brush up
v - brush down
00:00 / 00:00
Outros vídeos desta música
Repetir
Outros vídeos desta música
Compositor não encontrado.
1 exibições
    • ½ Tom
    • A
    • Bb
    • B
    • C
    • Db
    • D
    • Eb
    • E
    • F
    • F#
    • G
    • Ab
  • Adicionar à lista

    0 comentários

    Ver todos os comentários

    Conseguiu tocar?

    0 Tocaram 0 Ainda não

    Grave um vídeo tocando Miedo (2o acto - sentimientos) e nos envie!

    Entre para oCifra Club PRO

    Tenha acesso a benefícios exclusivos no App e no Site

    • Chega de anúncios

    • Prioridade de compra em lançamentos

    • Mais recursos no app do Afinador

    • Atendimento Prioritário

    • Descontos nos produtos Cifra Club

    • Ajude a produzir mais conteúdo

    00:00 / 00:00

    Cifra Club Pro

    Aproveite o Cifra Club com benefícios exclusivos e sem anúncios
    Cifra Club Pro
    Aproveite o Cifra Club com benefícios exclusivos e sem anúncios
    OK