Notificações Amigos pendentes

      Strike

      Sempre Quis

      166.495 exibições
      Tom: C
      (intro) C5  F5  A5  G5  F5  G5
      
      
      E|------------------------------------------------------------------------------------------|
      B|------------------------------------------------------------------------------------------|
      G|--------5-5-5-5--12--10-9-10-5-5-5-5-5-5-5--7/9-9-9-9-9--12--10-9-10--5-5-5-5--7/9-7/9-5--|
      D|--------x-x-x-x--x---x--x-x--x-x-x-x-x-x-x--x/x-x-x-x-x--x---x--x-x---x-x-x-x--x/x-x/x-x--|
      A|--------3-3-3-3--10--8--7-8--3-3-3-3-3-3-3--5/7-7-7-7-7--10--8--7-8---3-3-3-3--5/7-5/7-3--|
      E|--1h3p1-----------------------------------------------------------------------------------|
      (oitavado 2x)
      
      
       C5
      Na hora em que me aproximei
         G5                          A5
      Em frente ao mar  você estava ali
                          F5
      Naquela noite foi a primeira vez que te vi
      C5      G5                            Am5
      Veio a intenção  já nem quero resistir
      
      reduziu a pó meu passado
         F5                            G5
      Na hora em que o destino te entregou pra mim
      
      Eu te quis no principio  meio e fim
            F5          G5             A5
      Tudo foi completo com você por perto
            F5          G5          A5
      E me perco quando não estas aqui
            F5                   G5        A5
      Se te vejo ao meu lado é inevitavel um final feliz
           F5            G5                 C5
      Em você encontrei tudo que eu sempre quis
       A5                F5
      Vem depressa se entregar
                              C5
      Sou quem vai te fazer sorrir
                         G5
      já não vou mais suportar
                             D5
      Tanta falta que me fez sentir
      E5 F5    G5                  C5
      E nossa noite nunca tem fim
      
      (intro) C5  F5  A5  G5  F5  G5
      
            C5                             G5
      Ainda tenho a mensagem que você me mandou
                      A5
      Eu li a noite inteira
      
      E o beijo que você me roubou
         F5
      Naquela praia ali na areia
       C5
      Agora é tarde
       G5
      Mas se você quiser fugir
       A5
      Te carrego pra qualquer lugar
         F5                        G5
      Pois quimica entre nos dois começou fluir
      
      Vai ser do jeito que eu sempre fiz
            F5          G5            A5
      Tudo foi completo com você por perto
            F5          G5        A5
      E me perco quando não estas aqui
             F5                  G5        A5
      Se te vejo ao meu lado é inevitavel um final feliz
           F5           G5                 C5 C (tempo em C na 3ª e 5ª casa)
      em você encontrei tudo que eu sempre quis
       A5                F5
      Sem promessa e sem errar
                           C5
      Melhor deixar se permitir
                            G5
      Pra onde for vou te alcançar
                        D5
      Quando o luar te refletir
      E5 F5    G5                   C5
      E nossa noite nunca tem fim
      
      
      E|----------------------------|
      B|--5----3-5---5---3-5-3-5----|
      G|---5------5---5-----5---5---|
      D|----5----------5------------|
      A|----------------------------|
      E|----------------------------|
      
      (repete até o ultimo "tudo me leva até você")
      
      ( C  F  Am  G  F )
      
       C                F
      Tudo me leva até você
       Am     G         F
      Tudo me leva até você
       C                F
      Tudo me leva até você
       Am     G         F     G
      Tudo me leva até você
      
      
      E|---------------|
      B|---------------|
      G|--12-12-6-6-9--|
      D|--x--x--x-x-x--|
      A|--10-10-8-8-7--|
      E|---------------|
      
      
            F5           G5          A5
      Tudo foi completo com você por perto
            F5           G5       A5
      E me perco quando não estas aqui
            F5                 G5       A5
      Se tenho ao meu lado é inevitável um final feliz
           F5            G5               C5
      Em você encontrei tudo que eu sempre quis
            F5           G5               A5
      Em você encontrei tudo que eu sempre quis
            F5           G5                 C5
      Em você encontrei tudo que eu sempre quis
      
      
      E|----------------------------------------------------------------------------------------|
      B|----------------------------------------------------------------------------------------|
      G|--------5-5-5-5--12--10-9-10-5-5-5-5-5-5-5--7/9-9-9-9-9--12--10-9-10--5-5-5-5--7/9-7/9--|
      D|--------x-x-x-x--x---x--x-x--x-x-x-x-x-x-x--x/x-x-x-x-x--x---x--x-x---x-x-x-x--x/x-x/x--|
      A|--------3-3-3-3--10--8--7-8--3-3-3-3-3-3-3--5/7-7-7-7-7--10--8--7-8---3-3-3-3--5/7-5/7--|
      E|--1h3p1---------------------------------------------------------------------------------|
      
        Composição: Marcelo Mancini / André/ Cadu/ Rodrigo/ FábioColaboração e revisão:
        • jhonnykk
        • thiago.music
        • Caqui
        • duduceps
        • +5

        Comentários 0

        140 .
        140 cancelar

        conseguiu tocar?

        • •••

        covers

        Grave um vídeo tocando Sempre Quis e mande pra gente!

        Ex.: http://www.youtube.com/watch?v=0IvSvIwGdwk
        ver covers de outras músicas »
        0:00 / 0:00

        Capítulos

          1 versão de Guitar Proformatodownloadscontribuição
          play/pausefechar subir/descer velocidade
          6ª corda E5ª corda A4ª corda D3ª corda G2ª corda B1ª corda E
            acordes
            publicidade
            fechar
            ok