Cifra Club

89 Vision

Sublime

Cifra: Principal
exibições 2.998
Tom: E
intro (0:00)

--2-2-2--5-5-5-----------------|
--2-2-2--5-5-5--7-7-7--6~------|
--3-3-3--6-6-6--7-7-7--6~------|
--4-4-4--7-7-7--7-7-7--6~------|
-------------------------------|
-------------------------------|  x2

chorus (0:12)
--5-5--------|
--5-5--9-9---|
--6-6--9-9---|
--7-7--9-9---|
-------------|
-------------| x4

verse (0:26)
--5-5--------|
--5-5--9-9---|
--6-6--9-9---|
--7-7--9-9---|
-------------|
-------------| x4

verse (0:39)
--2-2--5-5---                    -7---|
--2-2--5-5---                    -7---|
--3-3--6-6---                    -8---|
--4-4--7-7---                    -9---|
-------------                     ----|
-------------x8 on 8th do ------------|


chorus (1:05)
--5-5--------|
--5-5--9-9---|
--6-6--9-9---|
--7-7--9-9---|
-------------|
-------------| x8


verse (1:32)
--2-2--5-5---|
--2-2--5-5---|
--3-3--6-6---|
--4-4--7-7---|
-------------|
-------------|x4


verse (1:59)
--5-5--------|
--5-5--9-9---|
--6-6--9-9---|
--7-7--9-9---|
-------------|
-------------| x8


verse (2:26)
--2-2--5-5---|
--2-2--5-5---|
--3-3--6-6---|
--4-4--7-7---|
-------------|
-------------|x8


ending (2:53)
--7-7---------|
--7-7--7-6~---|
--8-8--7-6~---|
--9-9--7-6~---|
--------------|
--------------|
Acordes para:

    0 comentários

      mostrar mais comentários

      Conseguiu tocar?

      0tocaram0ainda não

      Grave um vídeo tocando 89 Vision e mande pra gente!

      00:00 / 00:00
      outros vídeos desta música
      repetirqualidadeautomática
      Outro vídeos desta música
        00:00 / 00:00
        automática
        OK