Cifra Club

Date Rape

Sublime

Tab de baixo: Principal
exibições 4.238
Fiz a cifra o mais correto que consegui, mais vejam ai galera..!

  Intro:           
G:---------|---------|-----------|---------|-----------|------|--
D:---------|---------|-----------|---------|-----------|------|--
A:---------|---------|-----------|---------|-----------|------|--
E:000-222-1|-0-86543-|-222-333-2-|-0-46876-|-555-666-5-|batera|--


  Verse:                               4x         4x
G:----------|------|---------------|----------|----------|-------
D:----------|------|---------------|----------|----------|-------
A:----------|------|---------------|-----33---|-----22---|-------
E:222-333-2-|batera|-333333-222-11-|-3355--55-|-2244--44-|-------
                                   |                     |
                                   |__________4x_________|             

      8x
G:----------|-------------------|------------------|----------|--
D:----------|-------------------|------------------|----------|--
A:----------|-------------------|------------------|----------|--
E:9-9-10-10 |-333333etc.--------|-77777etc.--------|-33333333-|--


      4x
G:---------|----------|--------------|----------------|------|---
D:---------|----------|--------------|----------------|------|---
A:----22---|----------|--------------|----------------|------|---
E:2244--44-|-33333333-|-/12\\55555555-|-/12\\77777777-7-|batera|-


     8x         4x
G:---------|----------|-----------|---------|-----------|--------
D:---------|----------|-----------|---------|-----------|--------
A:----33---|-----22---|-----------|---------|-----------|--------
E:3355--55-|-2244--44-|-222-333-2-|-0-86543-|-333-444-3-|--------



G:--------|-----------|------|-----------|------|----------------
D:--------|-----------|------|-----------|------|----------------
A:--------|-----------|------|-----------|------|----------------
E:0-46876-|-555-666-5-|-rest-|-222-333-2-|-rest-|-333333-22-11---


     4x         4x                                      4x     
G:---------|----------|----------|-----------------|----------|--
D:---------|----------|----------|-----------------|----------|--
A:----33---|-----22---|----------|-----------------|-----33---|--
E:3355--55-|-2244--44-|-0-0-0000-|-3333etc.--------|-3355--55-|--


     4x          
G:---------|---------------|--------------|---------------|------
D:---------|---------------|--------------|---------------|------
A:----22---|-----33--------|--------------|---------------|------
E:2244--44-|-3355--55------|3333etc.------|-7777etc.------|------


      4x 
G:----------|----------------|----------------|----------|-------
D:----------|----------------|----------------|----------|-------
A:----------|----------------|----------------|----------|-------
E:9-10--7-8-|-33333etc.------|-77777etc.------|-00000000-|-------


     4x
G:---------|----------|--------------|--------------|------|-----
D:---------|----------|--------------|--------------|------|-----
A:----33---|----------|--------------|--------------|------|-----
E:3355--55-|-33333333-|-/12\\55555555-|-/12\\77777777-|batera|---



G:---------|----------|--------------|--------------|------|------
D:---------|----------|--------------|--------------|------|------
A:----33---|----------|--------------|--------------|------|------
E:3355--55-|-33333333-|-/12\\55555555-|-/12\\77777777-|batera|----



G:--------|--------|--------|------|------------------------------
D:--------|--------|--------|------|------------------------------
A:--------|--------|--------|------|------------------------------
E:|333333-|-777777-|-999999-|-8888-|-5555555555555555555555-------
  |                                | 
  |________________4x______________|         


Vlw ai galera, abração.>!
Arthur Luiz Costa –>>  Baixista da banda ALLUDY –> Sorocaba – SP.


_______________________________________________________
Contribuição: Arthur Luiz Costa(arthurzinho182@yahoo.com.br)
Composição: Sublime

0 comentários

    mostrar mais comentários

    Conseguiu tocar?

    0tocaram0ainda não

    Grave um vídeo tocando Date Rape e mande pra gente!

    00:00 / 00:00
    outros vídeos desta música
    repetirqualidadeautomática
    Outro vídeos desta música
      00:00 / 00:00
      automática
      OK