Dripping

Submersed

Composição de: Donald Carpenter / Eric Friedman / Kelan Luker / TJ Davis
tom: G
[Dedilhado]
 Obs: Guitarra afinada em D Dropped
E|-------------------------------------------
B|---------3---------------------------0-----
G|-----0-----0-----------0---------------0---
D|---4---4-----4-----4-----4---4-----4-----0-
A|-3---------------0---0-----0-----2---------
D|---------------0---------------2-----------

E|-------------------------------------0-----
B|---------3-----------------------------0---
G|-----0-----0-----------0-----------------0-
D|---4---4-----4-----4-----4---4-----4-------
A|-3---------------0---0-----0-----2---------
D|---------------0---------------2-----------

[Intro]
C, D, Em (x2)

[Verse]
C   D  Em
Find me
Em      C
Want to want 
D   Em             C
Never.....What you see
    D       Em
Calling, calling
         C
The depth becomes
      D          Em
Grab ahold of my face
  D    C
So numb

[Chorus]
  Em      D    C
So far fly away
            Em         C   D
I'm breaking through to you
   Em     D    C
So far fly away
            Em          C  D  Em
I'm breaking through to you

C, D, Em

[Verse]
C    D   Em
Touch you
         C
Feel the cold
D         Em
Friendships
        C
Grow so old
   D           Em
Difference, difference
         C
Never to know
    D       Em
Clearing my mind

    D  C
As I go

[Chorus]
  Em      D    C
So far fly away
            Em         C   D
I'm breaking through to you
   Em     D    C
So far fly away
            Em           Em
I'm breaking through to you
   G
To you
        D
Breaking through
        Em
Breaking through
        Em      G
Breaking through
  D
To you
  Em
To you

Em, G, D (x2)
Breaking through to you
Breaking through
Breaking through

D   C            Em
You take away my mind
D    C              Em
I'll take away your pride
C    D       Em
Soar far fly away

D, C, Em (x3)
I'm breaking through to you
Soar far fly away
I'm breaking through to you

I'm breaking through to you
Página 1 / 1

Letras e título
Acordes e artista

resetar configurações
OK